  0
SECTION
  2
HEADER
  9
$ACADVER
  1
AC1015
  9
$ACADMAINTVER
 70
     6
  9
$DWGCODEPAGE
  3
ANSI_1254
  9
$INSBASE
 10
0.0
 20
0.0
 30
0.0
  9
$EXTMIN
 10
0.0
 20
0.0
 30
0.0
  9
$EXTMAX
 10
279.4
 20
215.9
 30
0.0
  9
$LIMMIN
 10
0.0
 20
0.0
  9
$LIMMAX
 10
279.4
 20
215.9
  9
$ORTHOMODE
 70
     0
  9
$REGENMODE
 70
     1
  9
$FILLMODE
 70
     1
  9
$QTEXTMODE
 70
     0
  9
$MIRRTEXT
 70
     1
  9
$LTSCALE
 40
1.0
  9
$ATTMODE
 70
     1
  9
$TEXTSIZE
 40
3.5
  9
$TRACEWID
 40
1.0
  9
$TEXTSTYLE
  7
Standard
  9
$CLAYER
  8
0
  9
$CELTYPE
  6
ByLayer
  9
$CECOLOR
 62
   256
  9
$CELTSCALE
 40
1.0
  9
$DISPSILH
 70
     0
  9
$DIMSCALE
 40
1.0
  9
$DIMASZ
 40
3.5
  9
$DIMEXO
 40
1.0
  9
$DIMDLI
 40
3.75
  9
$DIMRND
 40
0.0
  9
$DIMDLE
 40
0.0
  9
$DIMEXE
 40
1.0
  9
$DIMTP
 40
0.0
  9
$DIMTM
 40
0.0
  9
$DIMTXT
 40
3.5
  9
$DIMCEN
 40
2.5
  9
$DIMTSZ
 40
0.0
  9
$DIMTOL
 70
     0
  9
$DIMLIM
 70
     0
  9
$DIMTIH
 70
     1
  9
$DIMTOH
 70
     1
  9
$DIMSE1
 70
     0
  9
$DIMSE2
 70
     0
  9
$DIMTAD
 70
     1
  9
$DIMZIN
 70
     0
  9
$DIMBLK
  1

  9
$DIMASO
 70
     1
  9
$DIMSHO
 70
     1
  9
$DIMPOST
  1

  9
$DIMAPOST
  1

  9
$DIMALT
 70
     0
  9
$DIMALTD
 70
     3
  9
$DIMALTF
 40
0.0393700787
  9
$DIMLFAC
 40
1.0
  9
$DIMTOFL
 70
     1
  9
$DIMTVP
 40
0.0
  9
$DIMTIX
 70
     0
  9
$DIMSOXD
 70
     0
  9
$DIMSAH
 70
     0
  9
$DIMBLK1
  1

  9
$DIMBLK2
  1

  9
$DIMSTYLE
  2
ISO-25
  9
$DIMCLRD
 70
     0
  9
$DIMCLRE
 70
     0
  9
$DIMCLRT
 70
     0
  9
$DIMTFAC
 40
1.0
  9
$DIMGAP
 40
1.524
  9
$DIMJUST
 70
     0
  9
$DIMSD1
 70
     0
  9
$DIMSD2
 70
     0
  9
$DIMTOLJ
 70
     0
  9
$DIMTZIN
 70
     0
  9
$DIMALTZ
 70
     0
  9
$DIMALTTZ
 70
     0
  9
$DIMUPT
 70
     0
  9
$DIMDEC
 70
     2
  9
$DIMTDEC
 70
     2
  9
$DIMALTU
 70
     2
  9
$DIMALTTD
 70
     3
  9
$DIMTXSTY
  7
Standard
  9
$DIMAUNIT
 70
     0
  9
$DIMADEC
 70
     2
  9
$DIMALTRND
 40
0.0
  9
$DIMAZIN
 70
     0
  9
$DIMDSEP
 70
    44
  9
$DIMATFIT
 70
     3
  9
$DIMFRAC
 70
     0
  9
$DIMLDRBLK
  1

  9
$DIMLUNIT
 70
     2
  9
$DIMLWD
 70
    -2
  9
$DIMLWE
 70
    -2
  9
$DIMTMOVE
 70
     0
  9
$LUNITS
 70
     2
  9
$LUPREC
 70
     2
  9
$SKETCHINC
 40
1.0
  9
$FILLETRAD
 40
10.0
  9
$AUNITS
 70
     0
  9
$AUPREC
 70
     2
  9
$MENU
  1
.
  9
$ELEVATION
 40
0.0
  9
$PELEVATION
 40
0.0
  9
$THICKNESS
 40
0.0
  9
$LIMCHECK
 70
     0
  9
$CHAMFERA
 40
0.0
  9
$CHAMFERB
 40
0.0
  9
$CHAMFERC
 40
0.0
  9
$CHAMFERD
 40
0.0
  9
$SKPOLY
 70
     0
  9
$TDCREATE
 40
2459741.614580555
  9
$TDUCREATE
 40
2459741.489580555
  9
$TDUPDATE
 40
2459741.614580741
  9
$TDUUPDATE
 40
2459741.489580741
  9
$TDINDWG
 40
0.0000000116
  9
$TDUSRTIMER
 40
0.0000000116
  9
$USRTIMER
 70
     1
  9
$ANGBASE
 50
0.0
  9
$ANGDIR
 70
     0
  9
$PDMODE
 70
     0
  9
$PDSIZE
 40
-1.0
  9
$PLINEWID
 40
0.0
  9
$SPLFRAME
 70
     0
  9
$SPLINETYPE
 70
     6
  9
$SPLINESEGS
 70
     8
  9
$HANDSEED
  5
143
  9
$SURFTAB1
 70
     6
  9
$SURFTAB2
 70
     6
  9
$SURFTYPE
 70
     6
  9
$SURFU
 70
     6
  9
$SURFV
 70
     6
  9
$UCSBASE
  2

  9
$UCSNAME
  2

  9
$UCSORG
 10
0.0
 20
0.0
 30
0.0
  9
$UCSXDIR
 10
1.0
 20
0.0
 30
0.0
  9
$UCSYDIR
 10
0.0
 20
1.0
 30
0.0
  9
$UCSORTHOREF
  2

  9
$UCSORTHOVIEW
 70
     0
  9
$UCSORGTOP
 10
0.0
 20
0.0
 30
0.0
  9
$UCSORGBOTTOM
 10
0.0
 20
0.0
 30
0.0
  9
$UCSORGLEFT
 10
0.0
 20
0.0
 30
0.0
  9
$UCSORGRIGHT
 10
0.0
 20
0.0
 30
0.0
  9
$UCSORGFRONT
 10
0.0
 20
0.0
 30
0.0
  9
$UCSORGBACK
 10
0.0
 20
0.0
 30
0.0
  9
$PUCSBASE
  2

  9
$PUCSNAME
  2

  9
$PUCSORG
 10
0.0
 20
0.0
 30
0.0
  9
$PUCSXDIR
 10
1.0
 20
0.0
 30
0.0
  9
$PUCSYDIR
 10
0.0
 20
1.0
 30
0.0
  9
$PUCSORTHOREF
  2

  9
$PUCSORTHOVIEW
 70
     0
  9
$PUCSORGTOP
 10
0.0
 20
0.0
 30
0.0
  9
$PUCSORGBOTTOM
 10
0.0
 20
0.0
 30
0.0
  9
$PUCSORGLEFT
 10
0.0
 20
0.0
 30
0.0
  9
$PUCSORGRIGHT
 10
0.0
 20
0.0
 30
0.0
  9
$PUCSORGFRONT
 10
0.0
 20
0.0
 30
0.0
  9
$PUCSORGBACK
 10
0.0
 20
0.0
 30
0.0
  9
$USERI1
 70
     0
  9
$USERI2
 70
     0
  9
$USERI3
 70
     0
  9
$USERI4
 70
     0
  9
$USERI5
 70
     0
  9
$USERR1
 40
0.0
  9
$USERR2
 40
0.0
  9
$USERR3
 40
0.0
  9
$USERR4
 40
0.0
  9
$USERR5
 40
0.0
  9
$WORLDVIEW
 70
     1
  9
$SHADEDGE
 70
     3
  9
$SHADEDIF
 70
    70
  9
$TILEMODE
 70
     1
  9
$MAXACTVP
 70
    64
  9
$PINSBASE
 10
0.0
 20
0.0
 30
0.0
  9
$PLIMCHECK
 70
     0
  9
$PEXTMIN
 10
1.0000000000E+20
 20
1.0000000000E+20
 30
1.0000000000E+20
  9
$PEXTMAX
 10
-1.0000000000E+20
 20
-1.0000000000E+20
 30
-1.0000000000E+20
  9
$PLIMMIN
 10
0.0
 20
0.0
  9
$PLIMMAX
 10
420.0
 20
297.0
  9
$UNITMODE
 70
     0
  9
$VISRETAIN
 70
     1
  9
$PLINEGEN
 70
     0
  9
$PSLTSCALE
 70
     1
  9
$TREEDEPTH
 70
  3020
  9
$CMLSTYLE
  2
Standard
  9
$CMLJUST
 70
     0
  9
$CMLSCALE
 40
20.0
  9
$PROXYGRAPHICS
 70
     1
  9
$MEASUREMENT
 70
     1
  9
$CELWEIGHT
370
    -1
  9
$ENDCAPS
280
     0
  9
$JOINSTYLE
280
     0
  9
$LWDISPLAY
290
     1
  9
$INSUNITS
 70
     4
  9
$HYPERLINKBASE
  1

  9
$STYLESHEET
  1

  9
$XEDIT
290
     1
  9
$CEPSNTYPE
380
     0
  9
$PSTYLEMODE
290
     1
  9
$FINGERPRINTGUID
  2
{a307b594-e5b6-4461-8cf3-c3c6b9f01a41}
  9
$VERSIONGUID
  2
{FAEB1C32-E019-11D5-929B-00C0DF256EC4}
  9
$EXTNAMES
290
     1
  9
$PSVPSCALE
 40
0.0
  9
$OLESTARTUP
290
     0
  0
ENDSEC
  0
SECTION
  2
CLASSES
  0
CLASS
  1
ACDBDICTIONARYWDFLT
  2
AcDbDictionaryWithDefault
  3
ObjectDBX Classes
 90
        0
280
     0
281
     0
  0
CLASS
  1
VISUALSTYLE
  2
AcDbVisualStyle
  3
ObjectDBX Classes
 90
     4095
280
     0
281
     0
  0
CLASS
  1
MATERIAL
  2
AcDbMaterial
  3
ObjectDBX Classes
 90
     1153
280
     0
281
     0
  0
CLASS
  1
SCALE
  2
AcDbScale
  3
ObjectDBX Classes
 90
     1153
280
     0
281
     0
  0
CLASS
  1
TABLESTYLE
  2
AcDbTableStyle
  3
ObjectDBX Classes
 90
     4095
280
     0
281
     0
  0
CLASS
  1
MLEADERSTYLE
  2
AcDbMLeaderStyle
  3
ACDB_MLEADERSTYLE_CLASS
 90
     4095
280
     0
281
     0
  0
CLASS
  1
SUN
  2
AcDbSun
  3
SCENEOE
 90
     1153
280
     0
281
     0
  0
CLASS
  1
ACDBPLACEHOLDER
  2
AcDbPlaceHolder
  3
ObjectDBX Classes
 90
        0
280
     0
281
     0
  0
CLASS
  1
LAYOUT
  2
AcDbLayout
  3
ObjectDBX Classes
 90
        0
280
     0
281
     0
  0
ENDSEC
  0
SECTION
  2
TABLES
  0
TABLE
  2
VPORT
  5
8
330
0
100
AcDbSymbolTable
 70
     1
  0
VPORT
  5
29
330
8
100
AcDbSymbolTableRecord
100
AcDbViewportTableRecord
  2
*Active
 70
     0
 10
0.0
 20
0.0
 11
1.0
 21
1.0
 12
139.7
 22
107.95
 13
0.0
 23
0.0
 14
10.0
 24
10.0
 15
10.0
 25
10.0
 16
0.0
 26
0.0
 36
1.0
 17
0.0
 27
0.0
 37
0.0
 40
215.9
 41
1.2941176471
 42
50.0
 43
0.0
 44
0.0
 50
0.0
 51
0.0
 71
     0
 72
  2000
 73
     1
 74
     3
 75
     0
 76
     0
 77
     0
 78
     0
281
     0
 65
     1
110
0.0
120
0.0
130
0.0
111
1.0
121
0.0
131
0.0
112
0.0
122
1.0
132
0.0
 79
     0
146
0.0
  0
ENDTAB
  0
TABLE
  2
LTYPE
  5
5
330
0
100
AcDbSymbolTable
 70
     6
  0
LTYPE
  5
14
330
5
100
AcDbSymbolTableRecord
100
AcDbLinetypeTableRecord
  2
ByBlock
 70
     0
  3

 72
    65
 73
     0
 40
0.0
  0
LTYPE
  5
15
330
5
100
AcDbSymbolTableRecord
100
AcDbLinetypeTableRecord
  2
ByLayer
 70
     0
  3

 72
    65
 73
     0
 40
0.0
  0
LTYPE
  5
16
330
5
100
AcDbSymbolTableRecord
100
AcDbLinetypeTableRecord
  2
Continuous
 70
     0
  3
Solid line
 72
    65
 73
     0
 40
0.0
  0
LTYPE
  5
6E
330
5
100
AcDbSymbolTableRecord
100
AcDbLinetypeTableRecord
  2
HIDDEN
 70
     0
  3
Hidden __ __ __ __ __ __ __ __ __ __ __ __ __ __
 72
    65
 73
     2
 40
1.905
 49
1.27
 74
     0
 49
-0.635
 74
     0
  0
LTYPE
  5
6F
330
5
100
AcDbSymbolTableRecord
100
AcDbLinetypeTableRecord
  2
PHANTOM
 70
     0
  3
Phantom ______  __  __  ______  __  __  ______
 72
    65
 73
     6
 40
12.7
 49
6.35
 74
     0
 49
-1.27
 74
     0
 49
1.27
 74
     0
 49
-1.27
 74
     0
 49
1.27
 74
     0
 49
-1.27
 74
     0
  0
LTYPE
  5
70
330
5
100
AcDbSymbolTableRecord
100
AcDbLinetypeTableRecord
  2
CENTER
 70
     0
  3
Center ____ _ ____ _ ____ _ ____ _ ____ _ ____
 72
    65
 73
     4
 40
10.16
 49
6.35
 74
     0
 49
-1.27
 74
     0
 49
1.27
 74
     0
 49
-1.27
 74
     0
  0
LTYPE
  5
71
330
5
100
AcDbSymbolTableRecord
100
AcDbLinetypeTableRecord
  2
CENTERX2
 70
     0
  3
Center (2x) ________  __  ________  __  _____
 72
    65
 73
     4
 40
20.32
 49
12.7
 74
     0
 49
-2.54
 74
     0
 49
2.54
 74
     0
 49
-2.54
 74
     0
  0
LTYPE
  5
72
330
5
100
AcDbSymbolTableRecord
100
AcDbLinetypeTableRecord
  2
DOT2
 70
     0
  3
Dot (.5x) ........................................
 72
    65
 73
     2
 40
0.635
 49
0.0
 74
     0
 49
-0.635
 74
     0
  0
ENDTAB
  0
TABLE
  2
LAYER
  5
2
330
0
100
AcDbSymbolTable
 70
    17
  0
LAYER
  5
10
330
2
100
AcDbSymbolTableRecord
100
AcDbLayerTableRecord
  2
0
 70
     0
 62
     7
  6
Continuous
370
    -3
390
F
  0
LAYER
  5
73
330
2
100
AcDbSymbolTableRecord
100
AcDbLayerTableRecord
  2
FORMAT
 70
     0
 62
     7
  6
Continuous
370
    -3
390
F
  0
LAYER
  5
74
330
2
100
AcDbSymbolTableRecord
100
AcDbLayerTableRecord
  2
YARDIMCI_GEOMETRI
 70
     0
 62
    -6
  6
Continuous
290
     0
370
    -3
390
F
  0
LAYER
  5
75
330
2
100
AcDbSymbolTableRecord
100
AcDbLayerTableRecord
  2
SAYFA_CERCEVESI
 70
     0
 62
     7
  6
Continuous
370
    25
390
F
  0
LAYER
  5
76
330
2
100
AcDbSymbolTableRecord
100
AcDbLayerTableRecord
  2
ANTET
 70
     0
 62
     7
  6
Continuous
370
    -3
390
F
  0
LAYER
  5
77
330
2
100
AcDbSymbolTableRecord
100
AcDbLayerTableRecord
  2
OLCU
 70
     0
 62
   150
  6
Continuous
370
    -3
390
F
  0
LAYER
  5
78
330
2
100
AcDbSymbolTableRecord
100
AcDbLayerTableRecord
  2
METIN
 70
     0
 62
    96
  6
Continuous
370
    -3
390
F
  0
LAYER
  5
79
330
2
100
AcDbSymbolTableRecord
100
AcDbLayerTableRecord
  2
BALON
 70
     0
 62
     5
  6
Continuous
370
    -3
390
F
  0
LAYER
  5
7A
330
2
100
AcDbSymbolTableRecord
100
AcDbLayerTableRecord
  2
VURGU
 70
     0
 62
     7
  6
Continuous
370
    -3
390
F
  0
LAYER
  5
7B
330
2
100
AcDbSymbolTableRecord
100
AcDbLayerTableRecord
  2
SILIK
 70
     0
 62
     7
  6
Continuous
370
    -3
390
F
  0
LAYER
  5
7C
330
2
100
AcDbSymbolTableRecord
100
AcDbLayerTableRecord
  2
MODEL
 70
     0
 62
     7
  6
Continuous
370
    -3
390
F
  0
LAYER
  5
7D
330
2
100
AcDbSymbolTableRecord
100
AcDbLayerTableRecord
  2
DETAYLANDıRMA
 70
     0
 62
   190
  6
Continuous
370
    -3
390
F
  0
LAYER
  5
7E
330
2
100
AcDbSymbolTableRecord
100
AcDbLayerTableRecord
  2
TOLERANS
 70
     0
 62
   230
  6
Continuous
370
    -3
390
F
  0
LAYER
  5
7F
330
2
100
AcDbSymbolTableRecord
100
AcDbLayerTableRecord
  2
MERKEZ_CIZGILERI
 70
     0
 62
    30
  6
Continuous
370
    -3
390
F
  0
LAYER
  5
80
330
2
100
AcDbSymbolTableRecord
100
AcDbLayerTableRecord
  2
KESIT-DETAY_CIZGILERI
 70
     0
 62
     7
  6
Continuous
370
    -3
390
F
  0
LAYER
  5
81
330
2
100
AcDbSymbolTableRecord
100
AcDbLayerTableRecord
  2
\U+041E\U+0421\U+0415\U+0412\U+042B\U+0415
 70
     0
 62
     7
  6
Continuous
370
    -3
390
F
  0
LAYER
  5
82
330
2
100
AcDbSymbolTableRecord
100
AcDbLayerTableRecord
  2
\U+0412\U+041E\U+0414\U+042F\U+041D\U+042B\U+0415_\U+0417\U+041D\U+0410\U+041A\U+0418
 70
     0
 62
    11
  6
Continuous
370
    -3
390
F
  0
ENDTAB
  0
TABLE
  2
STYLE
  5
3
330
0
100
AcDbSymbolTable
 70
     1
  0
STYLE
  5
11
330
3
100
AcDbSymbolTableRecord
100
AcDbTextStyleTableRecord
  2
Standard
 70
     0
 40
0.0
 41
1.0
 50
0.0
 71
     0
 42
3.5
  3
txt
  4

  0
ENDTAB
  0
TABLE
  2
VIEW
  5
6
330
0
100
AcDbSymbolTable
 70
     0
  0
ENDTAB
  0
TABLE
  2
UCS
  5
7
330
0
100
AcDbSymbolTable
 70
     0
  0
ENDTAB
  0
TABLE
  2
APPID
  5
9
330
0
100
AcDbSymbolTable
 70
     1
  0
APPID
  5
12
330
9
100
AcDbSymbolTableRecord
100
AcDbRegAppTableRecord
  2
ACAD
 70
     0
  0
ENDTAB
  0
TABLE
  2
DIMSTYLE
  5
A
330
0
100
AcDbSymbolTable
 70
     1
100
AcDbDimStyleTable
  0
DIMSTYLE
105
27
330
A
100
AcDbSymbolTableRecord
100
AcDbDimStyleTableRecord
  2
ISO-25
 70
     0
 41
2.5
 42
0.625
 43
3.75
 44
1.25
 73
     0
 74
     0
 77
     1
 78
     8
140
2.5
141
2.5
143
0.0393700787
147
0.625
171
     3
172
     1
178
     0
271
     2
272
     2
274
     3
278
    44
283
     0
284
     8
340
11
  0
ENDTAB
  0
TABLE
  2
BLOCK_RECORD
  5
1
330
0
100
AcDbSymbolTable
 70
     5
  0
BLOCK_RECORD
  5
1F
330
1
100
AcDbSymbolTableRecord
100
AcDbBlockTableRecord
  2
*Model_Space
340
22
  0
BLOCK_RECORD
  5
1B
330
1
100
AcDbSymbolTableRecord
100
AcDbBlockTableRecord
  2
*Paper_Space
340
1E
  0
BLOCK_RECORD
  5
23
330
1
100
AcDbSymbolTableRecord
100
AcDbBlockTableRecord
  2
*Paper_Space0
340
26
  0
BLOCK_RECORD
  5
C9
330
1
100
AcDbSymbolTableRecord
100
AcDbBlockTableRecord
  2
SW_CENTERMARKSYMBOL_0
340
0
102
{BLKREFS
331
D4
102
}
  0
BLOCK_RECORD
  5
F4
330
1
100
AcDbSymbolTableRecord
100
AcDbBlockTableRecord
  2
SW_CENTERMARKSYMBOL_1
340
0
102
{BLKREFS
331
FF
102
}
  0
BLOCK_RECORD
  5
100
330
1
100
AcDbSymbolTableRecord
100
AcDbBlockTableRecord
  2
SW_CENTERMARKSYMBOL_2
340
0
102
{BLKREFS
331
10B
102
}
  0
BLOCK_RECORD
  5
10C
330
1
100
AcDbSymbolTableRecord
100
AcDbBlockTableRecord
  2
SW_CENTERMARKSYMBOL_3
340
0
102
{BLKREFS
331
117
102
}
  0
ENDTAB
  0
ENDSEC
  0
SECTION
  2
BLOCKS
  0
BLOCK
  5
20
330
1F
100
AcDbEntity
  8
0
100
AcDbBlockBegin
  2
*Model_Space
 70
     0
 10
0.0
 20
0.0
 30
0.0
  3
*Model_Space
  1

  0
ENDBLK
  5
21
330
1F
100
AcDbEntity
  8
0
100
AcDbBlockEnd
  0
BLOCK
  5
1C
330
1B
100
AcDbEntity
 67
     1
  8
0
100
AcDbBlockBegin
  2
*Paper_Space
 70
     0
 10
0.0
 20
0.0
 30
0.0
  3
*Paper_Space
  1

  0
ENDBLK
  5
1D
330
1B
100
AcDbEntity
 67
     1
  8
0
100
AcDbBlockEnd
  0
BLOCK
  5
24
330
23
100
AcDbEntity
  8
0
100
AcDbBlockBegin
  2
*Paper_Space0
 70
     0
 10
0.0
 20
0.0
 30
0.0
  3
*Paper_Space0
  1

  0
ENDBLK
  5
25
330
23
100
AcDbEntity
  8
0
100
AcDbBlockEnd
  0
BLOCK
  5
CA
330
C9
100
AcDbEntity
  8
0
100
AcDbBlockBegin
  2
SW_CENTERMARKSYMBOL_0
 70
     0
 10
0.0
 20
0.0
 30
0.0
  3
SW_CENTERMARKSYMBOL_0
  1

  0
LINE
  5
CC
330
C9
100
AcDbEntity
  8
FORMAT
 62
     0
100
AcDbLine
 10
0.0
 20
0.0
 30
0.0
 11
0.0
 21
2.5
 31
0.0
  0
LINE
  5
CD
330
C9
100
AcDbEntity
  8
FORMAT
 62
     0
100
AcDbLine
 10
0.0
 20
0.0
 30
0.0
 11
-2.5
 21
0.0
 31
0.0
  0
LINE
  5
CE
330
C9
100
AcDbEntity
  8
FORMAT
 62
     0
100
AcDbLine
 10
0.0
 20
0.0
 30
0.0
 11
0.0
 21
-2.5
 31
0.0
  0
LINE
  5
CF
330
C9
100
AcDbEntity
  8
FORMAT
 62
     0
100
AcDbLine
 10
0.0
 20
0.0
 30
0.0
 11
2.5
 21
0.0
 31
0.0
  0
LINE
  5
D0
330
C9
100
AcDbEntity
  8
FORMAT
 62
     0
100
AcDbLine
 10
0.0
 20
5.0
 30
0.0
 11
0.0
 21
28.2
 31
0.0
  0
LINE
  5
D1
330
C9
100
AcDbEntity
  8
FORMAT
 62
     0
100
AcDbLine
 10
-5.0
 20
0.0
 30
0.0
 11
-28.2
 21
0.0
 31
0.0
  0
LINE
  5
D2
330
C9
100
AcDbEntity
  8
FORMAT
 62
     0
100
AcDbLine
 10
0.0
 20
-5.0
 30
0.0
 11
0.0
 21
-28.2
 31
0.0
  0
LINE
  5
D3
330
C9
100
AcDbEntity
  8
FORMAT
 62
     0
100
AcDbLine
 10
5.0
 20
0.0
 30
0.0
 11
28.2
 21
0.0
 31
0.0
  0
ENDBLK
  5
CB
330
C9
100
AcDbEntity
  8
0
100
AcDbBlockEnd
  0
BLOCK
  5
F5
330
F4
100
AcDbEntity
  8
0
100
AcDbBlockBegin
  2
SW_CENTERMARKSYMBOL_1
 70
     0
 10
0.0
 20
0.0
 30
0.0
  3
SW_CENTERMARKSYMBOL_1
  1

  0
LINE
  5
F7
330
F4
100
AcDbEntity
  8
FORMAT
 62
     0
100
AcDbLine
 10
0.0
 20
0.0
 30
0.0
 11
0.0
 21
2.5
 31
0.0
  0
LINE
  5
F8
330
F4
100
AcDbEntity
  8
FORMAT
 62
     0
100
AcDbLine
 10
0.0
 20
0.0
 30
0.0
 11
-2.5
 21
0.0
 31
0.0
  0
LINE
  5
F9
330
F4
100
AcDbEntity
  8
FORMAT
 62
     0
100
AcDbLine
 10
0.0
 20
0.0
 30
0.0
 11
0.0
 21
-2.5
 31
0.0
  0
LINE
  5
FA
330
F4
100
AcDbEntity
  8
FORMAT
 62
     0
100
AcDbLine
 10
0.0
 20
0.0
 30
0.0
 11
2.5
 21
0.0
 31
0.0
  0
LINE
  5
FB
330
F4
100
AcDbEntity
  8
FORMAT
 62
     0
100
AcDbLine
 10
0.0
 20
5.0
 30
0.0
 11
0.0
 21
34.0
 31
0.0
  0
LINE
  5
FC
330
F4
100
AcDbEntity
  8
FORMAT
 62
     0
100
AcDbLine
 10
-5.0
 20
0.0
 30
0.0
 11
-34.0
 21
0.0
 31
0.0
  0
LINE
  5
FD
330
F4
100
AcDbEntity
  8
FORMAT
 62
     0
100
AcDbLine
 10
0.0
 20
-5.0
 30
0.0
 11
0.0
 21
-34.0
 31
0.0
  0
LINE
  5
FE
330
F4
100
AcDbEntity
  8
FORMAT
 62
     0
100
AcDbLine
 10
5.0
 20
0.0
 30
0.0
 11
34.0
 21
0.0
 31
0.0
  0
ENDBLK
  5
F6
330
F4
100
AcDbEntity
  8
0
100
AcDbBlockEnd
  0
BLOCK
  5
101
330
100
100
AcDbEntity
  8
0
100
AcDbBlockBegin
  2
SW_CENTERMARKSYMBOL_2
 70
     0
 10
0.0
 20
0.0
 30
0.0
  3
SW_CENTERMARKSYMBOL_2
  1

  0
LINE
  5
103
330
100
100
AcDbEntity
  8
FORMAT
 62
     0
100
AcDbLine
 10
0.0
 20
0.0
 30
0.0
 11
0.0
 21
2.5
 31
0.0
  0
LINE
  5
104
330
100
100
AcDbEntity
  8
FORMAT
 62
     0
100
AcDbLine
 10
0.0
 20
0.0
 30
0.0
 11
-2.5
 21
0.0
 31
0.0
  0
LINE
  5
105
330
100
100
AcDbEntity
  8
FORMAT
 62
     0
100
AcDbLine
 10
0.0
 20
0.0
 30
0.0
 11
0.0
 21
-2.5
 31
0.0
  0
LINE
  5
106
330
100
100
AcDbEntity
  8
FORMAT
 62
     0
100
AcDbLine
 10
0.0
 20
0.0
 30
0.0
 11
2.5
 21
0.0
 31
0.0
  0
LINE
  5
107
330
100
100
AcDbEntity
  8
FORMAT
 62
     0
100
AcDbLine
 10
0.0
 20
5.0
 30
0.0
 11
0.0
 21
9.5
 31
0.0
  0
LINE
  5
108
330
100
100
AcDbEntity
  8
FORMAT
 62
     0
100
AcDbLine
 10
-5.0
 20
0.0
 30
0.0
 11
-9.5
 21
0.0
 31
0.0
  0
LINE
  5
109
330
100
100
AcDbEntity
  8
FORMAT
 62
     0
100
AcDbLine
 10
0.0
 20
-5.0
 30
0.0
 11
0.0
 21
-9.5
 31
0.0
  0
LINE
  5
10A
330
100
100
AcDbEntity
  8
FORMAT
 62
     0
100
AcDbLine
 10
5.0
 20
0.0
 30
0.0
 11
9.5
 21
0.0
 31
0.0
  0
ENDBLK
  5
102
330
100
100
AcDbEntity
  8
0
100
AcDbBlockEnd
  0
BLOCK
  5
10D
330
10C
100
AcDbEntity
  8
0
100
AcDbBlockBegin
  2
SW_CENTERMARKSYMBOL_3
 70
     0
 10
0.0
 20
0.0
 30
0.0
  3
SW_CENTERMARKSYMBOL_3
  1

  0
LINE
  5
10F
330
10C
100
AcDbEntity
  8
FORMAT
 62
     0
100
AcDbLine
 10
0.0
 20
0.0
 30
0.0
 11
0.0
 21
2.5
 31
0.0
  0
LINE
  5
110
330
10C
100
AcDbEntity
  8
FORMAT
 62
     0
100
AcDbLine
 10
0.0
 20
0.0
 30
0.0
 11
-2.5
 21
0.0
 31
0.0
  0
LINE
  5
111
330
10C
100
AcDbEntity
  8
FORMAT
 62
     0
100
AcDbLine
 10
0.0
 20
0.0
 30
0.0
 11
0.0
 21
-2.5
 31
0.0
  0
LINE
  5
112
330
10C
100
AcDbEntity
  8
FORMAT
 62
     0
100
AcDbLine
 10
0.0
 20
0.0
 30
0.0
 11
2.5
 21
0.0
 31
0.0
  0
LINE
  5
113
330
10C
100
AcDbEntity
  8
FORMAT
 62
     0
100
AcDbLine
 10
0.0
 20
5.0
 30
0.0
 11
0.0
 21
9.5
 31
0.0
  0
LINE
  5
114
330
10C
100
AcDbEntity
  8
FORMAT
 62
     0
100
AcDbLine
 10
-5.0
 20
0.0
 30
0.0
 11
-9.5
 21
0.0
 31
0.0
  0
LINE
  5
115
330
10C
100
AcDbEntity
  8
FORMAT
 62
     0
100
AcDbLine
 10
0.0
 20
-5.0
 30
0.0
 11
0.0
 21
-9.5
 31
0.0
  0
LINE
  5
116
330
10C
100
AcDbEntity
  8
FORMAT
 62
     0
100
AcDbLine
 10
5.0
 20
0.0
 30
0.0
 11
9.5
 21
0.0
 31
0.0
  0
ENDBLK
  5
10E
330
10C
100
AcDbEntity
  8
0
100
AcDbBlockEnd
  0
ENDSEC
  0
SECTION
  2
ENTITIES
  0
LINE
  5
83
330
1F
100
AcDbEntity
  8
0
  6
Continuous
 62
     7
370
    25
100
AcDbLine
 10
171.1807140607
 20
-44.2615714286
 30
0.0
 11
221.1807140607
 21
-44.2615714286
 31
0.0
  0
LINE
  5
84
330
1F
100
AcDbEntity
  8
0
  6
Continuous
 62
     7
370
    25
100
AcDbLine
 10
61.1807140607
 20
-44.2615714286
 30
0.0
 11
111.1807140607
 21
-44.2615714286
 31
0.0
  0
LINE
  5
85
330
1F
100
AcDbEntity
  8
0
  6
Continuous
 62
     7
370
    25
100
AcDbLine
 10
64.2701392244
 20
194.7384285714
 30
0.0
 11
61.1807140607
 21
194.7384285714
 31
0.0
  0
LINE
  5
86
330
1F
100
AcDbEntity
  8
0
  6
Continuous
 62
     7
370
    25
100
AcDbLine
 10
109.7913897484
 20
194.7384285714
 30
0.0
 11
78.1713364158
 21
194.7384285714
 31
0.0
  0
LINE
  5
87
330
1F
100
AcDbEntity
  8
0
  6
Continuous
 62
     7
370
    25
100
AcDbLine
 10
204.2701392244
 20
194.7384285714
 30
0.0
 11
172.599544626
 21
194.7384285714
 31
0.0
  0
LINE
  5
88
330
1F
100
AcDbEntity
  8
0
  6
Continuous
 62
     7
370
    25
100
AcDbLine
 10
221.1807140607
 20
194.7384285714
 30
0.0
 11
218.1713364158
 21
194.7384285714
 31
0.0
  0
LINE
  5
89
330
1F
100
AcDbEntity
  8
0
  6
Continuous
 62
     7
370
    25
100
AcDbLine
 10
109.6807140607
 20
262.7384285714
 30
0.0
 11
109.6807140607
 21
194.7093136411
 31
0.0
  0
LINE
  5
8A
330
1F
100
AcDbEntity
  8
0
  6
Continuous
 62
     7
370
    25
100
AcDbLine
 10
172.6807140607
 20
194.7171151278
 30
0.0
 11
172.6807140607
 21
262.7384285714
 31
0.0
  0
LINE
  5
8B
330
1F
100
AcDbEntity
  8
0
  6
Continuous
 62
     7
370
    25
100
AcDbLine
 10
64.1807140607
 20
209.7384285714
 30
0.0
 11
64.1807140607
 21
194.7332530453
 31
0.0
  0
LINE
  5
8C
330
1F
100
AcDbEntity
  8
0
  6
Continuous
 62
     7
370
    25
100
AcDbLine
 10
78.1807140607
 20
194.737907248
 30
0.0
 11
78.1807140607
 21
209.7384285714
 31
0.0
  0
LINE
  5
8D
330
1F
100
AcDbEntity
  8
0
  6
Continuous
 62
     7
370
    25
100
AcDbLine
 10
204.1807140607
 20
209.7384285714
 30
0.0
 11
204.1807140607
 21
194.7332530453
 31
0.0
  0
LINE
  5
8E
330
1F
100
AcDbEntity
  8
0
  6
Continuous
 62
     7
370
    25
100
AcDbLine
 10
218.1807140607
 20
194.737907248
 30
0.0
 11
218.1807140607
 21
209.7384285714
 31
0.0
  0
LINE
  5
8F
330
1F
100
AcDbEntity
  8
0
  6
Continuous
 62
     7
370
    25
100
AcDbLine
 10
221.1807140607
 20
77.2384285714
 30
0.0
 11
61.1807140607
 21
77.2384285714
 31
0.0
  0
LINE
  5
90
330
1F
100
AcDbEntity
  8
0
  6
Continuous
 62
     7
370
    25
100
AcDbLine
 10
61.1807140607
 20
84.2384285714
 30
0.0
 11
61.1807140607
 21
77.2384285714
 31
0.0
  0
LINE
  5
91
330
1F
100
AcDbEntity
  8
0
  6
Continuous
 62
     7
370
    25
100
AcDbLine
 10
221.1807140607
 20
84.2384285714
 30
0.0
 11
61.1807140607
 21
84.2384285714
 31
0.0
  0
LINE
  5
92
330
1F
100
AcDbEntity
  8
0
  6
Continuous
 62
     7
370
    25
100
AcDbLine
 10
221.1807140607
 20
84.2384285714
 30
0.0
 11
221.1807140607
 21
77.2384285714
 31
0.0
  0
LINE
  5
93
330
1F
100
AcDbEntity
  8
0
  6
Continuous
 62
     7
370
    25
100
AcDbLine
 10
61.1807140607
 20
73.2384285714
 30
0.0
 11
61.1807140607
 21
66.2384285714
 31
0.0
  0
LINE
  5
94
330
1F
100
AcDbEntity
  8
0
  6
Continuous
 62
     7
370
    25
100
AcDbLine
 10
221.1807140607
 20
73.2384285714
 30
0.0
 11
61.1807140607
 21
73.2384285714
 31
0.0
  0
LINE
  5
95
330
1F
100
AcDbEntity
  8
0
  6
Continuous
 62
     7
370
    25
100
AcDbLine
 10
221.1807140607
 20
73.2384285714
 30
0.0
 11
221.1807140607
 21
66.2384285714
 31
0.0
  0
LINE
  5
96
330
1F
100
AcDbEntity
  8
0
  6
Continuous
 62
     7
370
    25
100
AcDbLine
 10
221.1807140607
 20
66.2384285714
 30
0.0
 11
61.1807140607
 21
66.2384285714
 31
0.0
  0
SPLINE
  5
97
330
1F
100
AcDbEntity
  8
0
  6
Continuous
 62
     7
370
    25
100
AcDbSpline
210
0.0
220
0.0
230
1.0
 70
     8
 71
     3
 72
    12
 73
     8
 74
     0
 42
0.00000001
 43
0.00000001
 40
0.0
 40
0.0
 40
0.0
 40
0.0
 40
0.214587060354157
 40
0.42916519591147
 40
0.64397487913805
 40
0.8589358385560323
 40
1.0
 40
1.0
 40
1.0
 40
1.0
 10
71.18071406074247
 20
194.53323147583
 30
0.0
 10
70.39476465354869
 20
194.5378699754237
 30
0.0
 10
68.82289852724016
 20
194.5471467816931
 30
0.0
 10
66.72271834965805
 20
194.6123249476319
 30
0.0
 10
65.15413603410839
 20
194.6828984634567
 30
0.0
 10
64.26364153979286
 20
194.7335156755136
 30
0.0
 10
64.26829530927384
 20
194.7333170874751
 30
0.0
 10
64.27013922435434
 20
194.7332384029849
 30
0.0
  0
SPLINE
  5
98
330
1F
100
AcDbEntity
  8
0
  6
Continuous
 62
     7
370
    25
100
AcDbSpline
210
0.0
220
0.0
230
1.0
 70
     8
 71
     3
 72
    13
 73
     9
 74
     0
 42
0.00000001
 43
0.00000001
 40
0.0
 40
0.0
 40
0.0
 40
0.0
 40
0.0052241450113017
 40
0.2195571623470521
 40
0.4338894400053139
 40
0.6485406273149305
 40
0.8633343881157151
 40
1.0
 40
1.0
 40
1.0
 40
1.0
 10
78.17133641579692
 20
194.737893617032
 30
0.0
 10
78.17445596161157
 20
194.738071538362
 30
0.0
 10
78.30556231976112
 20
194.7455491068926
 30
0.0
 10
77.83574580127531
 20
194.7178982012991
 30
0.0
 10
76.73459818710623
 20
194.659398942227
 30
0.0
 10
74.91641883477698
 20
194.5861903637991
 30
0.0
 10
72.96564012936796
 20
194.5399935444602
 30
0.0
 10
71.68045904624475
 20
194.5351247250514
 30
0.0
 10
71.18071406074247
 20
194.53323147583
 30
0.0
  0
SPLINE
  5
99
330
1F
100
AcDbEntity
  8
0
  6
Continuous
 62
     7
370
    25
100
AcDbSpline
210
0.0
220
0.0
230
1.0
 70
     8
 71
     3
 72
    17
 73
    13
 74
     0
 42
0.00000001
 43
0.00000001
 40
0.0
 40
0.0
 40
0.0
 40
0.0
 40
0.1032948788296032
 40
0.2096541370517663
 40
0.3129302624394203
 40
0.4190802892605702
 40
0.52463231238979
 40
0.6331480513968085
 40
0.7402304407746612
 40
0.8505541289473615
 40
0.9552083817039111
 40
1.0
 40
1.0
 40
1.0
 40
1.0
 10
141.1807140607425
 20
190.512016179345
 30
0.0
 10
139.4694195132866
 20
190.5342779544727
 30
0.0
 10
135.9960625990479
 20
190.5794619297726
 30
0.0
 10
130.9604162593352
 20
190.9322546668743
 30
0.0
 10
126.1744051504065
 20
191.4544153229303
 30
0.0
 10
121.8164938031344
 20
192.103623903278
 30
0.0
 10
117.925521583395
 20
192.8168001858379
 30
0.0
 10
114.6733583764175
 20
193.5091521037452
 30
0.0
 10
112.1111050896413
 20
194.1151090167933
 30
0.0
 10
110.4619399847468
 20
194.5328517295563
 30
0.0
 10
109.6744798530432
 20
194.740046795646
 30
0.0
 10
109.7644300537418
 20
194.7163964380608
 30
0.0
 10
109.7913897484257
 20
194.7093080000728
 30
0.0
  0
SPLINE
  5
9A
330
1F
100
AcDbEntity
  8
0
  6
Continuous
 62
     7
370
    25
100
AcDbSpline
210
0.0
220
0.0
230
1.0
 70
     8
 71
     3
 72
    17
 73
    13
 74
     0
 42
0.00000001
 43
0.00000001
 40
0.0
 40
0.0
 40
0.0
 40
0.0
 40
0.0754323417781946
 40
0.1813678745440865
 40
0.2836942399915454
 40
0.3888443817414917
 40
0.4938584805923218
 40
0.601791650621244
 40
0.708912618717468
 40
0.8192405860762824
 40
0.9086431305901728
 40
1.0
 40
1.0
 40
1.0
 40
1.0
 10
172.5995446259933
 20
194.7170866527491
 30
0.0
 10
172.588612375794
 20
194.7141553669324
 30
0.0
 10
172.5623271122601
 20
194.7071074473565
 30
0.0
 10
171.5351179985655
 20
194.4387566769442
 30
0.0
 10
169.6978617135005
 20
193.980717526448
 30
0.0
 10
167.0859234697444
 20
193.3750638360413
 30
0.0
 10
163.7359657890338
 20
192.6794541714931
 30
0.0
 10
159.7377408894677
 20
191.9705130495572
 30
0.0
 10
155.1384508054083
 20
191.3201211445376
 30
0.0
 10
150.4025426119542
 20
190.8500964901012
 30
0.0
 10
145.6880256535914
 20
190.5636637760344
 30
0.0
 10
142.6939416836281
 20
190.529355688353
 30
0.0
 10
141.1807140607425
 20
190.512016179345
 30
0.0
  0
SPLINE
  5
9B
330
1F
100
AcDbEntity
  8
0
  6
Continuous
 62
     7
370
    25
100
AcDbSpline
210
0.0
220
0.0
230
1.0
 70
     8
 71
     3
 72
    12
 73
     8
 74
     0
 42
0.00000001
 43
0.00000001
 40
0.0
 40
0.0
 40
0.0
 40
0.0
 40
0.214587060354157
 40
0.42916519591147
 40
0.6439748791380498
 40
0.8589358385560322
 40
1.0
 40
1.0
 40
1.0
 40
1.0
 10
211.1807140607425
 20
194.53323147583
 30
0.0
 10
210.3947646535487
 20
194.5378699754236
 30
0.0
 10
208.8228985272402
 20
194.5471467816931
 30
0.0
 10
206.7227183496581
 20
194.6123249476319
 30
0.0
 10
205.1541360341084
 20
194.6828984634567
 30
0.0
 10
204.2636415397929
 20
194.7335156755137
 30
0.0
 10
204.2682953092739
 20
194.7333170874751
 30
0.0
 10
204.2701392243544
 20
194.7332384029849
 30
0.0
  0
SPLINE
  5
9C
330
1F
100
AcDbEntity
  8
0
  6
Continuous
 62
     7
370
    25
100
AcDbSpline
210
0.0
220
0.0
230
1.0
 70
     8
 71
     3
 72
    13
 73
     9
 74
     0
 42
0.00000001
 43
0.00000001
 40
0.0
 40
0.0
 40
0.0
 40
0.0
 40
0.0052241450113017
 40
0.2195571623470521
 40
0.4338894400053139
 40
0.6485406273149305
 40
0.8633343881157151
 40
1.0
 40
1.0
 40
1.0
 40
1.0
 10
218.171336415797
 20
194.737893617032
 30
0.0
 10
218.1744559616116
 20
194.738071538362
 30
0.0
 10
218.305562319761
 20
194.7455491068926
 30
0.0
 10
217.8357458012755
 20
194.7178982012991
 30
0.0
 10
216.7345981871062
 20
194.659398942227
 30
0.0
 10
214.916418834777
 20
194.5861903637991
 30
0.0
 10
212.965640129368
 20
194.5399935444602
 30
0.0
 10
211.6804590462448
 20
194.5351247250514
 30
0.0
 10
211.1807140607425
 20
194.53323147583
 30
0.0
  0
LINE
  5
9D
330
1F
100
AcDbEntity
  8
0
  6
Continuous
 62
     7
370
    25
100
AcDbLine
 10
111.1807140607
 20
65.2384285714
 30
0.0
 11
171.1807140607
 21
65.2384285714
 31
0.0
  0
LINE
  5
9E
330
1F
100
AcDbEntity
  8
0
  6
Continuous
 62
     7
370
    25
100
AcDbLine
 10
111.1807140607
 20
-44.2615714286
 30
0.0
 11
111.1807140607
 21
65.2384285714
 31
0.0
  0
LINE
  5
9F
330
1F
100
AcDbEntity
  8
0
  6
Continuous
 62
     7
370
    25
100
AcDbLine
 10
171.1807140607
 20
-24.4883190212
 30
0.0
 11
111.1807140607
 21
-24.4883190212
 31
0.0
  0
LINE
  5
A0
330
1F
100
AcDbEntity
  8
0
  6
Continuous
 62
     7
370
    25
100
AcDbLine
 10
171.1807140607
 20
65.2384285714
 30
0.0
 11
171.1807140607
 21
-44.2615714286
 31
0.0
  0
LINE
  5
A1
330
1F
100
AcDbEntity
  8
0
  6
Continuous
 62
     7
370
    25
100
AcDbLine
 10
61.1807140607
 20
66.2384285714
 30
0.0
 11
61.1807140607
 21
-44.2615714286
 31
0.0
  0
LINE
  5
A2
330
1F
100
AcDbEntity
  8
0
  6
Continuous
 62
     7
370
    25
100
AcDbLine
 10
61.1807140607
 20
194.7384285714
 30
0.0
 11
61.1807140607
 21
84.2384285714
 31
0.0
  0
LINE
  5
A3
330
1F
100
AcDbEntity
  8
0
  6
Continuous
 62
     7
370
    25
100
AcDbLine
 10
221.1807140607
 20
66.2384285714
 30
0.0
 11
221.1807140607
 21
-44.2615714286
 31
0.0
  0
LINE
  5
A4
330
1F
100
AcDbEntity
  8
0
  6
Continuous
 62
     7
370
    25
100
AcDbLine
 10
221.1807140607
 20
194.7384285714
 30
0.0
 11
221.1807140607
 21
84.2384285714
 31
0.0
  0
LINE
  5
A5
330
1F
100
AcDbEntity
  8
0
  6
Continuous
 62
     7
370
    25
100
AcDbLine
 10
111.1807140607
 20
-15.9834119351
 30
0.0
 11
171.1807140607
 21
-15.9834119351
 31
0.0
  0
LINE
  5
A6
330
1F
100
AcDbEntity
  8
0
  6
Continuous
 62
     7
370
    25
100
AcDbLine
 10
61.1807140607
 20
77.2384285714
 30
0.0
 11
61.1807140607
 21
73.2384285714
 31
0.0
  0
LINE
  5
A7
330
1F
100
AcDbEntity
  8
0
  6
Continuous
 62
     7
370
    25
100
AcDbLine
 10
221.1807140607
 20
77.2384285714
 30
0.0
 11
221.1807140607
 21
73.2384285714
 31
0.0
  0
LINE
  5
A8
330
1F
100
AcDbEntity
  8
0
  6
Continuous
 62
     7
370
    25
100
AcDbLine
 10
141.1807140607
 20
262.7384285714
 30
0.0
 11
172.6807140607
 21
262.7384285714
 31
0.0
  0
LINE
  5
A9
330
1F
100
AcDbEntity
  8
0
  6
Continuous
 62
     7
370
    25
100
AcDbLine
 10
109.6807140607
 20
262.7384285714
 30
0.0
 11
141.1807140607
 21
262.7384285714
 31
0.0
  0
LINE
  5
AA
330
1F
100
AcDbEntity
  8
0
  6
Continuous
 62
     7
370
    25
100
AcDbLine
 10
71.1807140607
 20
209.7384285714
 30
0.0
 11
78.1807140607
 21
209.7384285714
 31
0.0
  0
LINE
  5
AB
330
1F
100
AcDbEntity
  8
0
  6
Continuous
 62
     7
370
    25
100
AcDbLine
 10
64.1807140607
 20
209.7384285714
 30
0.0
 11
71.1807140607
 21
209.7384285714
 31
0.0
  0
LINE
  5
AC
330
1F
100
AcDbEntity
  8
0
  6
Continuous
 62
     7
370
    25
100
AcDbLine
 10
211.1807140607
 20
209.7384285714
 30
0.0
 11
204.1807140607
 21
209.7384285714
 31
0.0
  0
LINE
  5
AD
330
1F
100
AcDbEntity
  8
0
  6
Continuous
 62
     7
370
    25
100
AcDbLine
 10
218.1807140607
 20
209.7384285714
 30
0.0
 11
211.1807140607
 21
209.7384285714
 31
0.0
  0
LINE
  5
AE
330
1F
100
AcDbEntity
  8
0
  6
Continuous
 62
     7
370
    25
100
AcDbLine
 10
399.0252770211
 20
209.7384285714
 30
0.0
 11
399.0252770211
 21
194.538212351
 31
0.0
  0
LINE
  5
AF
330
1F
100
AcDbEntity
  8
0
  6
Continuous
 62
     7
370
    25
100
AcDbLine
 10
413.0252770211
 20
194.5332314758
 30
0.0
 11
413.0252770211
 21
209.7384285714
 31
0.0
  0
LINE
  5
B0
330
1F
100
AcDbEntity
  8
0
  6
Continuous
 62
     7
370
    25
100
AcDbLine
 10
374.5252770211
 20
262.7384285714
 30
0.0
 11
374.5252770211
 21
190.5297429674
 31
0.0
  0
LINE
  5
B1
330
1F
100
AcDbEntity
  8
0
  6
Continuous
 62
     7
370
    25
100
AcDbLine
 10
437.5252770211
 20
190.5120161793
 30
0.0
 11
437.5252770211
 21
262.7384285714
 31
0.0
  0
LINE
  5
B2
330
1F
100
AcDbEntity
  8
0
  6
Continuous
 62
     7
370
    25
100
AcDbLine
 10
525.1858829276
 20
84.2384285714
 30
0.0
 11
540.1858829276
 21
84.2384285714
 31
0.0
  0
LINE
  5
B3
330
1F
100
AcDbEntity
  8
0
  6
Continuous
 62
     7
370
    25
100
AcDbLine
 10
540.1858829276
 20
84.2384285714
 30
0.0
 11
540.1858829276
 21
77.2384285714
 31
0.0
  0
LINE
  5
B4
330
1F
100
AcDbEntity
  8
0
  6
Continuous
 62
     7
370
    25
100
AcDbLine
 10
540.1858829276
 20
77.2384285714
 30
0.0
 11
518.5074978384
 21
77.2384285714
 31
0.0
  0
ARC
  5
B5
330
1F
100
AcDbEntity
  8
0
  6
Continuous
 62
     7
370
    25
100
AcDbCircle
 10
406.0252770211
 20
75.2384285714
 30
0.0
 40
112.5
100
AcDbArc
 50
1.0186452976
 51
358.9813547024
  0
LINE
  5
B6
330
1F
100
AcDbEntity
  8
0
  6
Continuous
 62
     7
370
    25
100
AcDbLine
 10
518.5074978384
 20
73.2384285714
 30
0.0
 11
540.1858829276
 21
73.2384285714
 31
0.0
  0
LINE
  5
B7
330
1F
100
AcDbEntity
  8
0
  6
Continuous
 62
     7
370
    25
100
AcDbLine
 10
540.1858829276
 20
73.2384285714
 30
0.0
 11
540.1858829276
 21
66.2384285714
 31
0.0
  0
LINE
  5
B8
330
1F
100
AcDbEntity
  8
0
  6
Continuous
 62
     7
370
    25
100
AcDbLine
 10
540.1858829276
 20
66.2384285714
 30
0.0
 11
525.1858829276
 21
66.2384285714
 31
0.0
  0
ARC
  5
B9
330
1F
100
AcDbEntity
  8
0
  6
Continuous
 62
     7
370
    25
100
AcDbCircle
 10
406.0252770211
 20
75.2384285714
 30
0.0
 40
119.5
100
AcDbArc
 50
4.3192531481
 51
355.6807468519
  0
LINE
  5
BA
330
1F
100
AcDbEntity
  8
0
  6
Continuous
 62
     7
370
    25
100
AcDbLine
 10
399.0252770211
 20
209.7384285714
 30
0.0
 11
413.0252770211
 21
209.7384285714
 31
0.0
  0
LINE
  5
BB
330
1F
100
AcDbEntity
  8
0
  6
Continuous
 62
     7
370
    25
100
AcDbLine
 10
374.5252770211
 20
262.7384285714
 30
0.0
 11
437.5252770211
 21
262.7384285714
 31
0.0
  0
LINE
  5
BC
330
1F
100
AcDbEntity
  8
0
  6
Continuous
 62
     7
370
    25
100
AcDbLine
 10
61.1807140607
 20
347.5183418842
 30
0.0
 11
221.1807140607
 21
347.5183418842
 31
0.0
  0
LINE
  5
BD
330
1F
100
AcDbEntity
  8
0
  6
Continuous
 62
     7
370
    25
100
AcDbLine
 10
221.1807140607
 20
586.1789477906
 30
0.0
 11
61.1807140607
 21
586.1789477906
 31
0.0
  0
LINE
  5
BE
330
1F
100
AcDbEntity
  8
0
  6
Continuous
 62
     7
370
    25
100
AcDbLine
 10
221.1807140607
 20
586.1789477906
 30
0.0
 11
221.1807140607
 21
347.5183418842
 31
0.0
  0
LINE
  5
BF
330
1F
100
AcDbEntity
  8
0
  6
Continuous
 62
     7
370
    25
100
AcDbLine
 10
61.1807140607
 20
586.1789477906
 30
0.0
 11
61.1807140607
 21
347.5183418842
 31
0.0
  0
LINE
  5
C0
330
1F
100
AcDbEntity
  8
0
  6
Continuous
 62
     7
370
    25
100
AcDbLine
 10
111.1807140607
 20
586.0991967686
 30
0.0
 11
171.1807140607
 21
586.0991967686
 31
0.0
  0
LINE
  5
C1
330
1F
100
AcDbEntity
  8
0
  6
Continuous
 62
     7
370
    25
100
AcDbLine
 10
111.1807140607
 20
401.1789477906
 30
0.0
 11
111.1807140607
 21
586.0991967686
 31
0.0
  0
LINE
  5
C2
330
1F
100
AcDbEntity
  8
0
  6
Continuous
 62
     7
370
    25
100
AcDbLine
 10
171.1807140607
 20
401.1789477906
 30
0.0
 11
111.1807140607
 21
401.1789477906
 31
0.0
  0
LINE
  5
C3
330
1F
100
AcDbEntity
  8
0
  6
Continuous
 62
     7
370
    25
100
AcDbLine
 10
171.1807140607
 20
586.0991967686
 30
0.0
 11
171.1807140607
 21
401.1789477906
 31
0.0
  0
SPLINE
  5
C4
330
1F
100
AcDbEntity
  8
0
  6
Continuous
 62
     7
370
    25
100
AcDbSpline
210
0.0
220
0.0
230
1.0
 70
    11
 71
     3
 72
   130
 73
   126
 74
     0
 42
0.00000001
 43
0.00000001
 40
0.0
 40
0.0
 40
0.0
 40
0.0
 40
0.03125
 40
0.03125
 40
0.0468750000000001
 40
0.0468750000000001
 40
0.0546875
 40
0.0546875
 40
0.0625
 40
0.0625
 40
0.09375
 40
0.09375
 40
0.1015625
 40
0.1015625
 40
0.109375
 40
0.109375
 40
0.1249999999999999
 40
0.1249999999999999
 40
0.1562499999999997
 40
0.1562499999999997
 40
0.1640624999999996
 40
0.1640624999999996
 40
0.1718749999999995
 40
0.1718749999999995
 40
0.1874999999999994
 40
0.1874999999999994
 40
0.2031249999999993
 40
0.2031249999999993
 40
0.2109374999999993
 40
0.2109374999999993
 40
0.2187499999999992
 40
0.2187499999999992
 40
0.2499999999999991
 40
0.2499999999999991
 40
0.265624999999999
 40
0.265624999999999
 40
0.2812499999999989
 40
0.2812499999999989
 40
0.3124999999999988
 40
0.3124999999999988
 40
0.3281249999999987
 40
0.3281249999999987
 40
0.3437499999999986
 40
0.3437499999999986
 40
0.3593749999999986
 40
0.3593749999999986
 40
0.3671874999999985
 40
0.3671874999999985
 40
0.3749999999999984
 40
0.3749999999999984
 40
0.4062499999999985
 40
0.4062499999999985
 40
0.4218749999999986
 40
0.4218749999999986
 40
0.4296874999999986
 40
0.4296874999999986
 40
0.4374999999999986
 40
0.4374999999999986
 40
0.4687499999999988
 40
0.4687499999999988
 40
0.4765624999999989
 40
0.4765624999999989
 40
0.4843749999999989
 40
0.4843749999999989
 40
0.499999999999999
 40
0.499999999999999
 40
0.5312499999999991
 40
0.5312499999999991
 40
0.5468749999999992
 40
0.5468749999999992
 40
0.5624999999999993
 40
0.5624999999999993
 40
0.5781249999999996
 40
0.5781249999999996
 40
0.5937499999999997
 40
0.5937499999999997
 40
0.6249999999999998
 40
0.6249999999999998
 40
0.6328124999999998
 40
0.6328124999999998
 40
0.6406249999999998
 40
0.6406249999999998
 40
0.6562499999999998
 40
0.6562499999999998
 40
0.6874999999999997
 40
0.6874999999999997
 40
0.6953124999999998
 40
0.6953124999999998
 40
0.7031249999999998
 40
0.7031249999999998
 40
0.7187499999999998
 40
0.7187499999999998
 40
0.7343749999999998
 40
0.7343749999999998
 40
0.7421874999999998
 40
0.7421874999999998
 40
0.7499999999999998
 40
0.7499999999999998
 40
0.7812499999999998
 40
0.7812499999999998
 40
0.7968749999999998
 40
0.7968749999999998
 40
0.8124999999999998
 40
0.8124999999999998
 40
0.8437499999999999
 40
0.8437499999999999
 40
0.8593749999999999
 40
0.8593749999999999
 40
0.8749999999999999
 40
0.8749999999999999
 40
0.8906249999999999
 40
0.8906249999999999
 40
0.8984374999999999
 40
0.8984374999999999
 40
0.9062499999999999
 40
0.9062499999999999
 40
0.9374999999999999
 40
0.9374999999999999
 40
0.953125
 40
0.953125
 40
0.9609375
 40
0.9609375
 40
0.96875
 40
0.96875
 40
1.0
 40
1.0
 40
1.0
 40
1.0
 10
141.1807140607425
 20
441.3183418841568
 30
0.0
 10
142.884631492064
 20
441.3183418841568
 30
0.0
 10
144.5589095071551
 20
441.4861093914277
 30
0.0
 10
147.027963875042
 20
441.9782950642444
 30
0.0
 10
147.8438706528769
 20
442.1827491202238
 30
0.0
 10
149.0568738431062
 20
442.5513296429884
 30
0.0
 10
149.4604535677376
 20
442.6849164864344
 30
0.0
 10
150.2584209342331
 20
442.9712024324631
 30
0.0
 10
150.652184189014
 20
443.1236063278973
 30
0.0
 10
152.5955068378308
 20
443.9309720693602
 30
0.0
 10
154.0693200120297
 20
444.7206276507293
 30
0.0
 10
155.8125984403555
 20
445.8860479134509
 30
0.0
 10
156.1562591532062
 20
446.1281331678182
 30
0.0
 10
156.8334566464655
 20
446.6306146794462
 30
0.0
 10
157.1676258791956
 20
446.8915865201536
 30
0.0
 10
158.1446608260025
 20
447.6941333870633
 30
0.0
 10
158.7650732097364
 20
448.2572729092827
 30
0.0
 10
160.5363828416821
 20
450.0290020180607
 30
0.0
 10
161.5982550051123
 20
451.3190712013413
 30
0.0
 10
162.7727090574848
 20
453.0736629904941
 30
0.0
 10
162.9998899276654
 20
453.4319047888093
 30
0.0
 10
163.4337462920701
 20
454.1548172906001
 30
0.0
 10
163.6410989100445
 20
454.5204611127215
 30
0.0
 10
164.2348821406812
 20
455.6297959029966
 30
0.0
 10
164.5931066986501
 20
456.3858610437262
 30
0.0
 10
165.234984678004
 20
457.9308866339107
 30
0.0
 10
165.5186398918222
 20
458.7198460099311
 30
0.0
 10
165.8870423303233
 20
459.9285774085815
 30
0.0
 10
166.0003122834977
 20
460.3357107447537
 30
0.0
 10
166.2073740874917
 20
461.1586232228362
 30
0.0
 10
166.3010115449325
 20
461.5741028271038
 30
0.0
 10
166.7150761594178
 20
463.6491126122872
 30
0.0
 10
166.8796842811261
 20
465.320364384773
 30
0.0
 10
166.8812217951613
 20
467.8438427546727
 30
0.0
 10
166.8405466187345
 20
468.6877878033417
 30
0.0
 10
166.6739213626549
 20
470.3814413538414
 30
0.0
 10
166.5489645447919
 20
471.2195067941085
 30
0.0
 10
166.0553044191387
 20
473.6949002333599
 30
0.0
 10
165.5683637448231
 20
475.2997627299467
 30
0.0
 10
164.5988284497795
 20
477.6388063535955
 30
0.0
 10
164.2342542659509
 20
478.408322619828
 30
0.0
 10
163.4402284082261
 20
479.8912358154487
 30
0.0
 10
163.0092228378183
 20
480.6089347989071
 30
0.0
 10
162.0804453808047
 20
481.9979694481032
 30
0.0
 10
161.5826723377743
 20
482.6693037545255
 30
0.0
 10
160.7853296870175
 20
483.6413582589724
 30
0.0
 10
160.511085995064
 20
483.9595413376751
 30
0.0
 10
159.9453751635725
 20
484.584075906367
 30
0.0
 10
159.6531784484302
 20
484.8911067134754
 30
0.0
 10
158.1630948288577
 20
486.3814861180624
 30
0.0
 10
156.8718001053903
 20
487.4407420229861
 30
0.0
 10
154.7884047336858
 20
488.836210861723
 30
0.0
 10
154.0693506028115
 20
489.2688878566402
 30
0.0
 10
152.9525023984665
 20
489.8677059087553
 30
0.0
 10
152.5732175298052
 20
490.059157360733
 30
0.0
 10
151.8101145164644
 20
490.4209947053678
 30
0.0
 10
151.4253558773053
 20
490.5919235332333
 30
0.0
 10
149.4857387935538
 20
491.397422417123
 30
0.0
 10
147.8838538261319
 20
491.8859928821457
 30
0.0
 10
145.8176060452848
 20
492.3000915670446
 30
0.0
 10
145.4011339051754
 20
492.3729903900663
 30
0.0
 10
144.5615989163644
 20
492.4985255984577
 30
0.0
 10
144.1383093208673
 20
492.5511085503033
 30
0.0
 10
142.8733362971276
 20
492.6765414189501
 30
0.0
 10
142.03162796503
 20
492.7179874665318
 30
0.0
 10
139.5112040575084
 20
492.7190439461216
 30
0.0
 10
137.8371461720431
 20
492.5565769661841
 30
0.0
 10
135.3357036594794
 20
492.0592799205391
 30
0.0
 10
134.5143586409916
 20
491.852920617614
 30
0.0
 10
132.9057704502363
 20
491.3642225150493
 30
0.0
 10
132.1168346301256
 20
491.0815434358968
 30
0.0
 10
130.5692191107235
 20
490.4402921483459
 30
0.0
 10
129.8105388623176
 20
490.081721990762
 30
0.0
 10
128.3238465989089
 20
489.2871843563976
 30
0.0
 10
127.5946346610318
 20
488.849836463078
 30
0.0
 10
125.4995807322463
 20
487.4490759275717
 30
0.0
 10
124.2092838695109
 20
486.3901678516343
 30
0.0
 10
122.7271326718963
 20
484.9105406500537
 30
0.0
 10
122.4373000027033
 20
484.6067422328584
 30
0.0
 10
121.8710237945333
 20
483.9831071109547
 30
0.0
 10
121.5938954677184
 20
483.6623928254791
 30
0.0
 10
120.7904773388851
 20
482.6848610814792
 30
0.0
 10
120.2906635301091
 20
482.0114902487531
 30
0.0
 10
118.895487082142
 20
479.927776214642
 30
0.0
 10
118.1033475304787
 20
478.4544591745976
 30
0.0
 10
117.2911463698419
 20
476.5029231655148
 30
0.0
 10
117.1373874686208
 20
476.1061091135989
 30
0.0
 10
116.8512329844608
 20
475.3096275137077
 30
0.0
 10
116.7184739646857
 20
474.9092157704288
 30
0.0
 10
116.3506339774911
 20
473.7015632544264
 30
0.0
 10
116.1459174062316
 20
472.8879198797002
 30
0.0
 10
115.8165774738241
 20
471.2436897489633
 30
0.0
 10
115.6919532228627
 20
470.4131032576188
 30
0.0
 10
115.5661543473563
 20
469.154264201967
 30
0.0
 10
115.5344293008819
 20
468.7324875782165
 30
0.0
 10
115.4918067837043
 20
467.8845175915375
 30
0.0
 10
115.4809740013051
 20
467.4578209191998
 30
0.0
 10
115.4796975886123
 20
465.3377921474454
 30
0.0
 10
115.6449446465404
 20
463.6656083256011
 30
0.0
 10
116.1357319468481
 20
461.1920689427985
 30
0.0
 10
116.3401072160435
 20
460.3733854112794
 30
0.0
 10
116.8329689061509
 20
458.7480032679693
 30
0.0
 10
117.1184876793046
 20
457.9516821057451
 30
0.0
 10
118.0832005275442
 20
455.624698899586
 30
0.0
 10
118.8714806533866
 20
454.148860129146
 30
0.0
 10
120.273944420092
 20
452.0481766492843
 30
0.0
 10
120.7800164033202
 20
451.3656588258232
 30
0.0
 10
121.845167889876
 20
450.0674833186302
 30
0.0
 10
122.4064979720987
 20
449.4480510167897
 30
0.0
 10
123.5858179197725
 20
448.267183501394
 30
0.0
 10
124.2038083986338
 20
447.705749680348
 30
0.0
 10
125.1739435583623
 20
446.9074323085852
 30
0.0
 10
125.5045268109258
 20
446.6486455935363
 30
0.0
 10
126.1803798066717
 20
446.1459355559543
 30
0.0
 10
126.5266433038062
 20
445.9013693124899
 30
0.0
 10
128.2808295382605
 20
444.7262781668635
 30
0.0
 10
129.7559639284171
 20
443.9365555398616
 30
0.0
 10
132.074661063878
 20
442.9710812724834
 30
0.0
 10
132.865352993966
 20
442.6860481035421
 30
0.0
 10
134.0790493251754
 20
442.3154008536266
 30
0.0
 10
134.4892885210457
 20
442.2011138348855
 30
0.0
 10
135.312056239421
 20
441.9937771690796
 30
0.0
 10
135.7249092850795
 20
441.9005650302659
 30
0.0
 10
137.7964431728065
 20
441.4861459764568
 30
0.0
 10
139.476796629421
 20
441.3183418841568
 30
0.0
 10
141.1807140607425
 20
441.3183418841568
 30
0.0
  0
LINE
  5
C5
330
1F
100
AcDbEntity
  8
0
  6
Continuous
 62
     7
370
    25
100
AcDbLine
 10
171.1807140607
 20
579.0730160392
 30
0.0
 11
111.1807140607
 21
579.0730160392
 31
0.0
  0
LINE
  5
C6
330
1F
100
AcDbEntity
  8
0
  6
Continuous
 62
     7
370
    25
100
AcDbLine
 10
221.1807140607
 20
601.1789477906
 30
0.0
 11
61.1807140607
 21
601.1789477906
 31
0.0
  0
LINE
  5
C7
330
1F
100
AcDbEntity
  8
0
  6
Continuous
 62
     7
370
    25
100
AcDbLine
 10
61.1807140607
 20
601.1789477906
 30
0.0
 11
61.1807140607
 21
586.1789477906
 31
0.0
  0
LINE
  5
C8
330
1F
100
AcDbEntity
  8
0
  6
Continuous
 62
     7
370
    25
100
AcDbLine
 10
221.1807140607
 20
601.1789477906
 30
0.0
 11
221.1807140607
 21
586.1789477906
 31
0.0
  0
INSERT
  5
D4
330
1F
100
AcDbEntity
  8
FORMAT
100
AcDbBlockReference
  2
SW_CENTERMARKSYMBOL_0
 10
141.1807140607
 20
467.0183418842
 30
0.0
  0
LINE
  5
D5
330
1F
100
AcDbEntity
  8
0
  6
Continuous
 62
     7
370
    25
100
AcDbLine
 10
-195.139967251
 20
209.7384285714
 30
0.0
 11
-195.139967251
 21
194.5332314758
 31
0.0
  0
LINE
  5
D6
330
1F
100
AcDbEntity
  8
0
  6
Continuous
 62
     7
370
    25
100
AcDbLine
 10
-181.139967251
 20
194.538212351
 30
0.0
 11
-181.139967251
 21
209.7384285714
 31
0.0
  0
LINE
  5
D7
330
1F
100
AcDbEntity
  8
0
  6
Continuous
 62
     7
370
    25
100
AcDbLine
 10
-219.639967251
 20
262.7384285714
 30
0.0
 11
-219.639967251
 21
190.5120161793
 31
0.0
  0
LINE
  5
D8
330
1F
100
AcDbEntity
  8
0
  6
Continuous
 62
     7
370
    25
100
AcDbLine
 10
-156.639967251
 20
190.5297429674
 30
0.0
 11
-156.639967251
 21
262.7384285714
 31
0.0
  0
LINE
  5
D9
330
1F
100
AcDbEntity
  8
0
  6
Continuous
 62
     7
370
    25
100
AcDbLine
 10
-322.3005731574
 20
66.2384285714
 30
0.0
 11
-307.3005731574
 21
66.2384285714
 31
0.0
  0
LINE
  5
DA
330
1F
100
AcDbEntity
  8
0
  6
Continuous
 62
     7
370
    25
100
AcDbLine
 10
-322.3005731574
 20
73.2384285714
 30
0.0
 11
-322.3005731574
 21
66.2384285714
 31
0.0
  0
LINE
  5
DB
330
1F
100
AcDbEntity
  8
0
  6
Continuous
 62
     7
370
    25
100
AcDbLine
 10
-300.6221880683
 20
73.2384285714
 30
0.0
 11
-322.3005731574
 21
73.2384285714
 31
0.0
  0
ARC
  5
DC
330
1F
100
AcDbEntity
  8
0
  6
Continuous
 62
     7
370
    25
100
AcDbCircle
 10
-188.139967251
 20
75.2384285714
 30
0.0
 40
112.5
100
AcDbArc
 50
181.0186452976
 51
178.9813547024
  0
LINE
  5
DD
330
1F
100
AcDbEntity
  8
0
  6
Continuous
 62
     7
370
    25
100
AcDbLine
 10
-322.3005731574
 20
77.2384285714
 30
0.0
 11
-300.6221880683
 21
77.2384285714
 31
0.0
  0
LINE
  5
DE
330
1F
100
AcDbEntity
  8
0
  6
Continuous
 62
     7
370
    25
100
AcDbLine
 10
-322.3005731574
 20
84.2384285714
 30
0.0
 11
-322.3005731574
 21
77.2384285714
 31
0.0
  0
LINE
  5
DF
330
1F
100
AcDbEntity
  8
0
  6
Continuous
 62
     7
370
    25
100
AcDbLine
 10
-307.3005731574
 20
84.2384285714
 30
0.0
 11
-322.3005731574
 21
84.2384285714
 31
0.0
  0
ARC
  5
E0
330
1F
100
AcDbEntity
  8
0
  6
Continuous
 62
     7
370
    25
100
AcDbCircle
 10
-188.139967251
 20
75.2384285714
 30
0.0
 40
119.5
100
AcDbArc
 50
184.3192531481
 51
175.6807468519
  0
LINE
  5
E1
330
1F
100
AcDbEntity
  8
0
  6
Continuous
 62
     7
370
    25
100
AcDbLine
 10
-181.139967251
 20
209.7384285714
 30
0.0
 11
-195.139967251
 21
209.7384285714
 31
0.0
  0
LINE
  5
E2
330
1F
100
AcDbEntity
  8
0
  6
Continuous
 62
     7
370
    25
100
AcDbLine
 10
-219.639967251
 20
262.7384285714
 30
0.0
 11
-156.639967251
 21
262.7384285714
 31
0.0
  0
LINE
  5
E3
330
1F
100
AcDbEntity
  8
0
  6
Continuous
 62
     7
370
    25
100
AcDbLine
 10
221.1807140607
 20
-129.9232046141
 30
0.0
 11
61.1807140607
 21
-129.9232046141
 31
0.0
  0
CIRCLE
  5
E4
330
1F
100
AcDbEntity
  8
0
  6
Continuous
 62
     7
370
    25
100
AcDbCircle
 10
141.1807140607
 20
-249.4232046141
 30
0.0
 40
25.70000000000002
  0
CIRCLE
  5
E5
330
1F
100
AcDbEntity
  8
0
  6
Continuous
 62
     7
370
    25
100
AcDbCircle
 10
141.1807140607
 20
-249.4232046141
 30
0.0
 40
31.50000000000003
  0
CIRCLE
  5
E6
330
1F
100
AcDbEntity
  8
0
  6
Continuous
 62
     7
370
    25
100
AcDbCircle
 10
71.1807140607
 20
-249.4232046141
 30
0.0
 40
4.599999999999966
  0
CIRCLE
  5
E7
330
1F
100
AcDbEntity
  8
0
  6
Continuous
 62
     7
370
    25
100
AcDbCircle
 10
71.1807140607
 20
-249.4232046141
 30
0.0
 40
6.999999999999972
  0
CIRCLE
  5
E8
330
1F
100
AcDbEntity
  8
0
  6
Continuous
 62
     7
370
    25
100
AcDbCircle
 10
211.1807140607
 20
-249.4232046141
 30
0.0
 40
4.599999999999966
  0
CIRCLE
  5
E9
330
1F
100
AcDbEntity
  8
0
  6
Continuous
 62
     7
370
    25
100
AcDbCircle
 10
211.1807140607
 20
-249.4232046141
 30
0.0
 40
6.999999999999972
  0
CIRCLE
  5
EA
330
1F
100
AcDbEntity
  8
0
  6
Continuous
 62
     7
370
    25
100
AcDbCircle
 10
71.1807140607
 20
-249.4232046141
 30
0.0
 40
1.5
  0
CIRCLE
  5
EB
330
1F
100
AcDbEntity
  8
0
  6
Continuous
 62
     7
370
    25
100
AcDbCircle
 10
71.1807140607
 20
-249.4232046141
 30
0.0
 40
2.000000000000057
  0
CIRCLE
  5
EC
330
1F
100
AcDbEntity
  8
0
  6
Continuous
 62
     7
370
    25
100
AcDbCircle
 10
211.1807140607
 20
-249.4232046141
 30
0.0
 40
1.5
  0
CIRCLE
  5
ED
330
1F
100
AcDbEntity
  8
0
  6
Continuous
 62
     7
370
    25
100
AcDbCircle
 10
211.1807140607
 20
-249.4232046141
 30
0.0
 40
2.000000000000057
  0
LINE
  5
EE
330
1F
100
AcDbEntity
  8
0
  6
Continuous
 62
     7
370
    25
100
AcDbLine
 10
221.1807140607
 20
-129.9232046141
 30
0.0
 11
221.1807140607
 21
-368.5838105206
 31
0.0
  0
LINE
  5
EF
330
1F
100
AcDbEntity
  8
0
  6
Continuous
 62
     7
370
    25
100
AcDbLine
 10
221.1807140607
 20
-368.5838105206
 30
0.0
 11
61.1807140607
 21
-368.5838105206
 31
0.0
  0
LINE
  5
F0
330
1F
100
AcDbEntity
  8
0
  6
Continuous
 62
     7
370
    25
100
AcDbLine
 10
61.1807140607
 20
-129.9232046141
 30
0.0
 11
61.1807140607
 21
-368.5838105206
 31
0.0
  0
LINE
  5
F1
330
1F
100
AcDbEntity
  8
0
  6
Continuous
 62
     7
370
    25
100
AcDbLine
 10
221.1807140607
 20
-383.5838105206
 30
0.0
 11
61.1807140607
 21
-383.5838105206
 31
0.0
  0
LINE
  5
F2
330
1F
100
AcDbEntity
  8
0
  6
Continuous
 62
     7
370
    25
100
AcDbLine
 10
61.1807140607
 20
-368.5838105206
 30
0.0
 11
61.1807140607
 21
-383.5838105206
 31
0.0
  0
LINE
  5
F3
330
1F
100
AcDbEntity
  8
0
  6
Continuous
 62
     7
370
    25
100
AcDbLine
 10
221.1807140607
 20
-368.5838105206
 30
0.0
 11
221.1807140607
 21
-383.5838105206
 31
0.0
  0
INSERT
  5
FF
330
1F
100
AcDbEntity
  8
FORMAT
100
AcDbBlockReference
  2
SW_CENTERMARKSYMBOL_1
 10
141.1807140607
 20
-249.4232046141
 30
0.0
  0
INSERT
  5
10B
330
1F
100
AcDbEntity
  8
FORMAT
100
AcDbBlockReference
  2
SW_CENTERMARKSYMBOL_2
 10
71.1807140607
 20
-249.4232046141
 30
0.0
  0
INSERT
  5
117
330
1F
100
AcDbEntity
  8
FORMAT
100
AcDbBlockReference
  2
SW_CENTERMARKSYMBOL_3
 10
211.1807140607
 20
-249.4232046141
 30
0.0
  0
LINE
  5
118
330
1F
100
AcDbEntity
  8
0
  6
Continuous
 62
     7
370
    25
100
AcDbLine
 10
457.9795493099
 20
-382.5192944727
 30
0.0
 11
571.1166342997
 21
-317.2066455269
 31
0.0
  0
LINE
  5
119
330
1F
100
AcDbEntity
  8
0
  6
Continuous
 62
     7
370
    25
100
AcDbLine
 10
451.6263457497
 20
-110.2209674179
 30
0.0
 11
338.4892607599
 21
-175.5336163637
 31
0.0
  0
LINE
  5
11A
330
1F
100
AcDbEntity
  8
0
  6
Continuous
 62
     7
370
    25
100
AcDbLine
 10
497.3004222129
 20
-107.9711078329
 30
0.0
 11
497.3004222129
 21
-109.3765311909
 31
0.0
  0
LINE
  5
11B
330
1F
100
AcDbEntity
  8
0
  6
Continuous
 62
     7
370
    25
100
AcDbLine
 10
511.3004222129
 20
-116.0961873884
 30
0.0
 11
511.3004222129
 21
-107.9711078329
 31
0.0
  0
LINE
  5
11C
330
1F
100
AcDbEntity
  8
0
  6
Continuous
 62
     7
370
    25
100
AcDbLine
 10
423.3029475298
 20
-93.2687287167
 30
0.0
 11
423.3029475298
 21
-126.5717171748
 31
0.0
  0
LINE
  5
11D
330
1F
100
AcDbEntity
  8
0
  6
Continuous
 62
     7
370
    25
100
AcDbLine
 10
486.3029475298
 20
-106.0583647104
 30
0.0
 11
486.3029475298
 21
-93.2687287167
 31
0.0
  0
LINE
  5
11E
330
1F
100
AcDbEntity
  8
0
  6
Continuous
 62
     7
370
    25
100
AcDbLine
 10
416.5056158202
 20
-166.2977703048
 30
0.0
 11
427.112217538
 21
-172.4208311435
 31
0.0
  0
LINE
  5
11F
330
1F
100
AcDbEntity
  8
0
  6
Continuous
 62
     7
370
    25
100
AcDbLine
 10
416.5056158202
 20
-160.5819846216
 30
0.0
 11
416.5056158202
 21
-166.2977703048
 31
0.0
  0
LINE
  5
120
330
1F
100
AcDbEntity
  8
0
  6
Continuous
 62
     7
370
    25
100
AcDbLine
 10
431.8345489219
 20
-169.4311893406
 30
0.0
 11
416.5056158202
 21
-160.5819846216
 31
0.0
  0
LWPOLYLINE
  5
121
330
1F
100
AcDbEntity
  8
0
  6
Continuous
 62
     7
370
    25
100
AcDbPolyline
 90
      123
 70
   128
 43
0.0
 10
431.8345489219
 20
-166.1650260931
 10
432.0112080993
 20
-161.5677494831
 10
432.3959418136
 20
-157.1071944975
 10
432.9877413322
 20
-152.7950562548
 10
433.7850550175
 20
-148.6426407403
 10
434.7857923944
 20
-144.6608351624
 10
435.9873296322
 20
-140.8600794078
 10
437.386516423
 20
-137.2503386691
 10
438.9796842423
 20
-133.8410773171
 10
440.7626559672
 20
-130.641234086
 10
442.7307568283
 20
-127.6591986373
 10
444.8788266665
 20
-124.9027895629
 10
447.2012334627
 20
-122.3792338851
 10
449.6918881038
 20
-120.0951481086
 10
452.3442603483
 20
-118.0565208727
 10
455.1513959477
 20
-116.2686972492
 10
458.1059348797
 20
-114.7363647287
 10
461.2001306456
 20
-113.4635409303
 10
464.4258705809
 20
-112.4535630676
 10
467.7746971255
 20
-111.7090791993
 10
471.2378299991
 20
-111.2320412859
 10
474.8061892216
 20
-111.023700072
 10
478.4704189204
 20
-111.0846018068
 10
482.2209118603
 20
-111.4145868123
 10
486.0478346326
 20
-112.0127899016
 10
489.9411534375
 20
-112.8776426474
 10
493.8906603915
 20
-114.0068774943
 10
497.8860002917
 20
-115.3975337041
 10
501.9166977658
 20
-117.0459651186
 10
505.9721847375
 20
-118.9478497193
 10
510.0418281351
 20
-121.0982009594
 10
514.11495777
 20
-123.4913808381
 10
518.1808943133
 20
-126.1211146827
 10
522.2289772955
 20
-128.9805076002
 10
526.2485930573
 20
-132.062062555
 10
530.2292025776
 20
-135.3577000254
 10
534.1603691056
 20
-138.8587791873
 10
538.0317855252
 20
-142.5561205694
 10
541.8333013785
 20
-146.440030121
 10
545.5549494802
 20
-150.5003246289
 10
549.1869720499
 20
-154.7263584164
 10
552.719846296
 20
-159.1070512553
 10
556.1443093839
 20
-163.6309174176
 10
559.451382722
 20
-168.286095789
 10
562.6323955022
 20
-173.0603809684
 10
565.6790074348
 20
-177.9412552686
 10
568.583230615
 20
-182.9159215368
 10
571.337450467
 20
-187.9713367072
 10
573.9344457081
 20
-193.0942459986
 10
576.3674072826
 20
-198.2712176672
 10
578.6299562143
 20
-203.4886782231
 10
580.7161603315
 20
-208.7329480188
 10
582.6205498205
 20
-213.9902771155
 10
584.3381315669
 20
-219.2468813345
 10
585.8644022472
 20
-224.4889783975
 10
587.1953601359
 20
-229.7028240626
 10
588.3275155977
 20
-234.87474816
 10
589.2579002367
 20
-239.9911904341
 10
589.9840746798
 20
-245.0387360968
 10
590.5041349717
 20
-250.0041510002
 10
590.8167175677
 20
-254.8744163345
 10
590.9210029082
 20
-259.6367627624
 10
590.8167175677
 20
-264.2787038991
 10
590.5041349717
 20
-268.78806905
 10
589.9840746798
 20
-273.1530351212
 10
589.2579002367
 20
-277.3621576184
 10
588.3275155977
 20
-281.4044006532
 10
587.1953601359
 20
-285.2691658782
 10
585.8644022472
 20
-288.9463202743
 10
584.3381315669
 20
-292.4262227192
 10
582.6205498205
 20
-295.6997492648
 10
580.7161603315
 20
-298.7583170595
 10
578.6299562143
 20
-301.5939068517
 10
576.3674072826
 20
-304.199084015
 10
573.9344457081
 20
-306.5670180417
 10
571.337450467
 20
-308.6915004511
 10
568.583230615
 20
-310.5669610676
 10
565.6790074348
 20
-312.1884826256
 10
562.6323955022
 20
-313.5518136615
 10
559.451382722
 20
-314.6533796608
 10
556.1443093839
 20
-315.4902924302
 10
552.719846296
 20
-316.0603576701
 10
549.1869720499
 20
-316.3620807278
 10
545.5549494802
 20
-316.3946705164
 10
541.8333013785
 20
-316.1580415886
 10
538.0317855252
 20
-315.6528143614
 10
534.1603691056
 20
-314.8803134888
 10
530.2292025776
 20
-313.842564389
 10
526.2485930573
 20
-312.542287934
 10
522.2289772955
 20
-310.9828933156
 10
518.1808943133
 20
-309.1684691069
 10
514.11495777
 20
-307.1037725423
 10
510.0418281351
 20
-304.7942170451
 10
505.9721847375
 20
-302.2458580333
 10
501.9166977658
 20
-299.4653770434
 10
497.8860002917
 20
-296.4600642121
 10
493.8906603915
 20
-293.2377991619
 10
489.9411534374
 20
-289.807030342
 10
486.0478346326
 20
-286.1767528772
 10
482.2209118603
 20
-282.3564849834
 10
478.4704189204
 20
-278.356243012
 10
474.8061892216
 20
-274.1865151881
 10
471.2378299991
 20
-269.8582341112
 10
467.7746971255
 20
-265.3827480914
 10
464.4258705809
 20
-260.7717913948
 10
461.2001306456
 20
-256.0374534782
 10
458.1059348797
 20
-251.1921472908
 10
455.1513959477
 20
-246.2485767297
 10
452.3442603483
 20
-241.2197033308
 10
449.6918881038
 20
-236.1187122856
 10
447.2012334627
 20
-230.9589778704
 10
444.8788266665
 20
-225.7540283808
 10
442.7307568283
 20
-220.5175106618
 10
440.7626559672
 20
-215.2631543266
 10
438.9796842423
 20
-210.00473576
 10
437.386516423
 20
-204.7560419971
 10
435.9873296322
 20
-199.5308345759
 10
434.7857923944
 20
-194.3428134554
 10
433.7850550175
 20
-189.205581096
 10
432.9877413322
 20
-184.1326067952
 10
432.3959418136
 20
-179.1371913723
 10
432.0112080993
 20
-174.2324322954
 10
431.8345489219
 20
-169.4311893406
  0
LINE
  5
122
330
1F
100
AcDbEntity
  8
0
  6
Continuous
 62
     7
370
    25
100
AcDbLine
 10
416.5056158202
 20
-157.3158213741
 30
0.0
 11
431.8345489219
 21
-166.1650260931
 31
0.0
  0
LINE
  5
123
330
1F
100
AcDbEntity
  8
0
  6
Continuous
 62
     7
370
    25
100
AcDbLine
 10
416.5056158202
 20
-151.6000356909
 30
0.0
 11
416.5056158202
 21
-157.3158213741
 31
0.0
  0
LINE
  5
124
330
1F
100
AcDbEntity
  8
0
  6
Continuous
 62
     7
370
    25
100
AcDbLine
 10
427.112217538
 20
-157.7230965296
 30
0.0
 11
416.5056158202
 21
-151.6000356909
 31
0.0
  0
LWPOLYLINE
  5
125
330
1F
100
AcDbEntity
  8
0
  6
Continuous
 62
     7
370
    25
100
AcDbPolyline
 90
      124
 70
   128
 43
0.0
 10
427.112217538
 20
-172.4208311435
 10
427.534075256
 20
-177.5042873763
 10
428.1642864529
 20
-182.6777318238
 10
429.0012849224
 20
-187.9283073963
 10
430.0429905484
 20
-193.2429653174
 10
431.286814475
 20
-198.6084975526
 10
432.7296655401
 20
-204.0115696341
 10
434.3679579576
 20
-209.4387537997
 10
436.1976202287
 20
-214.8765623638
 10
438.2141052607
 20
-220.3114812367
 10
440.4124016674
 20
-225.7300035103
 10
442.7870462231
 20
-231.1186630257
 10
445.3321374405
 20
-236.4640678388
 10
448.0413502364
 20
-241.7529335027
 10
450.9079516516
 20
-246.972116082
 10
453.9248175829
 20
-252.1086448185
 10
457.0844504886
 20
-257.1497543657
 10
460.3789980215
 20
-262.0829165141
 10
463.8002725429
 20
-266.8958713257
 10
467.3397714716
 20
-271.576657603
 10
470.9886984135
 20
-276.1136426149
 10
474.7379850236
 20
-280.4955510064
 10
478.5783135418
 20
-284.7114928204
 10
482.50013995
 20
-288.7509905611
 10
486.4937176907
 20
-292.6040052335
 10
490.5491218896
 20
-296.2609612916
 10
494.6562740205
 20
-299.7127704362
 10
498.8049669528
 20
-302.9508542008
 10
502.9848903186
 20
-305.9671652712
 10
507.1856561356
 20
-308.7542074848
 10
511.3968246237
 20
-311.3050544598
 10
515.6079301501
 20
-313.6133668088
 10
519.8085072382
 20
-315.6734078938
 10
523.9881165772
 20
-317.4800580825
 10
528.1363709651
 20
-319.0288274722
 10
532.2429611238
 20
-320.3158670474
 10
536.2976813193
 20
-321.3379782462
 10
540.2904547255
 20
-322.0926209088
 10
544.2113584668
 20
-322.5779195907
 10
548.0506482789
 20
-322.7926682233
 10
551.798782725
 20
-322.7363331114
 10
555.4464469085
 20
-322.4090542596
 10
558.9845756224
 20
-321.8116450241
 10
562.4043758781
 20
-320.9455900916
 10
565.6973487581
 20
-319.8130417895
 10
568.8553105371
 20
-318.4168147366
 10
571.870413021
 20
-316.7603788487
 10
574.7351630505
 20
-314.8478507149
 10
577.4424411238
 20
-312.6839833668
 10
579.9855190895
 20
-310.2741544665
 10
582.3580768681
 20
-307.624352942
 10
584.5542181582
 20
-304.7411641033
 10
586.56848509
 20
-301.6317532766
 10
588.3958717898
 20
-298.303847997
 10
590.0318368201
 20
-294.7657188038
 10
591.4723144662
 20
-291.0261586868
 10
592.7137248405
 20
-287.0944612336
 10
593.752982779
 20
-282.9803975332
 10
594.5875055087
 20
-278.6941918929
 10
595.2152190665
 20
-274.2464964285
 10
595.6345634531
 20
-269.6483645917
 10
595.8444965101
 20
-264.9112237003
 10
595.8444965101
 20
-260.0468465383
 10
595.6345634531
 20
-255.0673220985
 10
595.2152190665
 20
-249.9850255388
 10
594.5875055087
 20
-244.8125874271
 10
593.752982779
 20
-239.5628623521
 10
592.7137248405
 20
-234.2488969766
 10
591.4723144662
 20
-228.883897614
 10
590.0318368201
 20
-223.4811974077
 10
588.3958717898
 20
-218.0542231957
 10
586.56848509
 20
-212.616462142
 10
584.5542181582
 20
-207.1814282181
 10
582.3580768681
 20
-201.762628618
 10
579.9855190895
 20
-196.3735301899
 10
577.4424411238
 20
-191.0275259686
 10
574.7351630505
 20
-185.7379018907
 10
571.870413021
 20
-180.5178037764
 10
568.8553105371
 20
-175.3802046593
 10
565.6973487581
 20
-170.3378725458
 10
562.4043758781
 20
-165.403338684
 10
558.9845756224
 20
-160.5888664207
 10
555.4464469085
 20
-155.9064207246
 10
551.798782725
 20
-151.3676384509
 10
548.0506482789
 20
-146.9837994211
 10
544.2113584668
 20
-142.7657983904
 10
540.2904547255
 20
-138.724117972
 10
536.2976813193
 20
-134.8688025855
 10
532.2429611238
 20
-131.2094334947
 10
528.1363709651
 20
-127.7551049955
 10
523.9881165772
 20
-124.5144018157
 10
519.8085072382
 20
-121.4953777791
 10
515.6079301501
 20
-118.7055357907
 10
511.3968246237
 20
-116.1518091904
 10
507.1856561356
 20
-113.840544522
 10
502.9848903186
 20
-111.7774857606
 10
498.8049669528
 20
-109.967760038
 10
494.6562740205
 20
-108.4158649004
 10
490.5491218896
 20
-107.1256571313
 10
486.4937176907
 20
-106.1003431663
 10
482.50013995
 20
-105.3424711247
 10
478.5783135418
 20
-104.8539244767
 10
474.7379850236
 20
-104.6359173629
 10
470.9886984135
 20
-104.6889915762
 10
467.3397714716
 20
-105.0130152163
 10
463.8002725429
 20
-105.6071830168
 10
460.3789980215
 20
-106.4700183465
 10
457.0844504886
 20
-107.5993768797
 10
453.9248175829
 20
-108.9924519245
 10
450.9079516516
 20
-110.6457813987
 10
448.0413502364
 20
-112.5552564332
 10
445.3321374405
 20
-114.7161315841
 10
442.7870462231
 20
-117.1230366253
 10
440.4124016674
 20
-119.7699898955
 10
438.2141052607
 20
-122.650413163
 10
436.1976202287
 20
-125.7571479747
 10
434.3679579576
 20
-129.082473446
 10
432.7296655401
 20
-132.6181254488
 10
431.286814475
 20
-136.3553171498
 10
430.0429905484
 20
-140.2847608473
 10
429.0012849224
 20
-144.3966910534
 10
428.1642864529
 20
-148.680888763
 10
427.534075256
 20
-153.1267068504
 10
427.112217538
 20
-157.7230965296
  0
LINE
  5
126
330
1F
100
AcDbEntity
  8
0
  6
Continuous
 62
     7
370
    25
100
AcDbLine
 10
427.112217538
 20
-172.4208311435
 30
0.0
 11
313.9751325481
 21
-237.7334800893
 31
0.0
  0
LWPOLYLINE
  5
127
330
1F
100
AcDbEntity
  8
0
  6
Continuous
 62
     7
370
    25
100
AcDbPolyline
 90
       47
 70
   128
 43
0.0
 10
313.9751325481
 20
-237.7334800893
 10
314.3969902661
 20
-242.8169363221
 10
315.0272014631
 20
-247.9903807696
 10
315.8641999325
 20
-253.2409563421
 10
316.9059055585
 20
-258.5556142632
 10
318.1497294852
 20
-263.9211464984
 10
319.5925805503
 20
-269.3242185799
 10
321.2308729677
 20
-274.7514027455
 10
323.0605352388
 20
-280.1892113096
 10
325.0770202709
 20
-285.6241301825
 10
327.2753166775
 20
-291.0426524562
 10
329.6499612333
 20
-296.4313119715
 10
332.1950524507
 20
-301.7767167846
 10
334.9042652466
 20
-307.0655824485
 10
337.7708666617
 20
-312.2847650278
 10
340.787732593
 20
-317.4212937643
 10
343.9473654988
 20
-322.4624033115
 10
347.2419130316
 20
-327.3955654599
 10
350.6631875531
 20
-332.2085202715
 10
354.2026864817
 20
-336.8893065488
 10
357.8516134237
 20
-341.4262915607
 10
361.6009000338
 20
-345.8081999522
 10
365.441228552
 20
-350.0241417662
 10
369.3630549601
 20
-354.063639507
 10
373.3566327009
 20
-357.9166541793
 10
377.4120368997
 20
-361.5736102374
 10
381.5191890306
 20
-365.025419382
 10
385.667881963
 20
-368.2635031466
 10
389.8478053288
 20
-371.279814217
 10
394.0485711458
 20
-374.0668564306
 10
398.2597396339
 20
-376.6177034056
 10
402.4708451602
 20
-378.9260157546
 10
406.6714222484
 20
-380.9860568396
 10
410.8510315873
 20
-382.7927070283
 10
414.9992859752
 20
-384.341476418
 10
419.1058761339
 20
-385.6285159932
 10
423.1605963295
 20
-386.650627192
 10
427.1533697357
 20
-387.4052698546
 10
431.074273477
 20
-387.8905685365
 10
434.9135632891
 20
-388.1053171691
 10
438.6616977352
 20
-388.0489820573
 10
442.3093619187
 20
-387.7217032054
 10
445.8474906326
 20
-387.1242939699
 10
449.2672908883
 20
-386.2582390375
 10
452.5602637682
 20
-385.1256907353
 10
455.7182255473
 20
-383.7294636824
 10
457.9795493099
 20
-382.5192944727
  0
LWPOLYLINE
  5
128
330
1F
100
AcDbEntity
  8
0
  6
Continuous
 62
     7
370
    25
100
AcDbPolyline
 90
       13
 70
   128
 43
0.0
 10
338.4892607599
 20
-175.5336163637
 10
337.7708666617
 20
-175.9584303445
 10
334.9042652466
 20
-177.8679053791
 10
332.1950524506
 20
-180.0287805299
 10
329.6499612333
 20
-182.4356855712
 10
327.2753166775
 20
-185.0826388413
 10
325.0770202709
 20
-187.9630621088
 10
323.0605352388
 20
-191.0697969205
 10
321.2308729677
 20
-194.3951223918
 10
319.5925805503
 20
-197.9307743946
 10
318.1497294852
 20
-201.6679660956
 10
316.9059055585
 20
-205.5974097931
 10
315.8668351691
 20
-209.69756712
  0
LINE
  5
129
330
1F
100
AcDbEntity
  8
0
  6
Continuous
 62
     7
370
    25
100
AcDbLine
 10
349.386864096
 20
-218.1723727963
 30
0.0
 11
391.8132709672
 21
-193.6801294416
 31
0.0
  0
LWPOLYLINE
  5
12A
330
1F
100
AcDbEntity
  8
0
  6
Continuous
 62
     7
370
    25
100
AcDbPolyline
 90
       42
 70
   128
 43
0.0
 10
480.145226127
 20
-366.9231197764
 10
476.5262080935
 20
-367.4438795587
 10
472.7977117335
 20
-367.6871533681
 10
468.9692438739
 20
-367.652320911
 10
465.0505662469
 20
-367.3394710022
 10
461.051670599
 20
-366.7494013388
 10
456.9827532147
 20
-365.8836164656
 10
452.8541889184
 20
-364.7443239393
 10
448.6765046205
 20
-363.3344286998
 10
444.4603524762
 20
-361.6575256626
 10
440.2164827254
 20
-359.7178905536
 10
435.9557162814
 20
-357.5204690058
 10
431.6889171405
 20
-355.0708639502
 10
427.4269646809
 20
-352.3753213285
 10
423.1807259227
 20
-349.4407141684
 10
418.9610278198
 20
-346.2745250581
 10
414.7786296533
 20
-342.8848270676
 10
410.6441955981
 20
-339.2802631646
 10
406.5682675309
 20
-335.4700241763
 10
402.5612381518
 20
-331.4638253551
 10
398.6333244845
 20
-327.2718816071
 10
394.7945418253
 20
-322.9048814461
 10
391.0546782068
 20
-318.3739597403
 10
387.42326944
 20
-313.690669321
 10
383.9095748006
 20
-308.8669515256
 10
380.5225534196
 20
-303.9151057494
 10
377.27084144
 20
-298.8477580857
 10
374.1627299958
 20
-293.6778291312
 10
371.2061440722
 20
-288.4185010421
 10
368.4086222984
 20
-283.0831839221
 10
365.7772977258
 20
-277.68548163
 10
363.3188796402
 20
-272.2391570926
 10
361.0396364548
 20
-266.7580972127
 10
358.9453797272
 20
-261.2562774602
 10
357.0414493409
 20
-255.7477262381
 10
355.3326998904
 20
-250.2464891132
 10
353.8234883023
 20
-244.7665930028
 10
352.5176627268
 20
-239.3220104096
 10
351.4185527254
 20
-233.9266237948
 10
350.5289607814
 20
-228.5941901806
 10
349.8511551543
 20
-223.3383060737
 10
349.386864096
 20
-218.1723727963
  0
LINE
  5
12B
330
1F
100
AcDbEntity
  8
0
  6
Continuous
 62
     7
370
    25
100
AcDbLine
 10
522.5716329981
 20
-342.4308764217
 30
0.0
 11
480.145226127
 21
-366.9231197764
 31
0.0
  0
LWPOLYLINE
  5
12C
330
1F
100
AcDbEntity
  8
0
  6
Continuous
 62
     7
370
    25
100
AcDbPolyline
 90
       42
 70
   128
 43
0.0
 10
391.8132709672
 20
-193.6801294416
 10
392.2775620255
 20
-198.846062719
 10
392.9553676526
 20
-204.101946826
 10
393.8449595966
 20
-209.4343804401
 10
394.9440695979
 20
-214.829767055
 10
396.2498951734
 20
-220.2743496481
 10
397.7591067615
 20
-225.7542457585
 10
399.4678562121
 20
-231.2554828835
 10
401.3717865984
 20
-236.7640341055
 10
403.466043326
 20
-242.265853858
 10
405.7452865114
 20
-247.746913738
 10
408.203704597
 20
-253.1932382753
 10
410.8350291696
 20
-258.5909405674
 10
413.6325509434
 20
-263.9262576874
 10
416.589136867
 20
-269.1855857765
 10
419.6972483112
 20
-274.355514731
 10
422.9489602908
 20
-279.4228623948
 10
426.3359816718
 20
-284.3747081709
 10
429.8496763112
 20
-289.1984259663
 10
433.4810850779
 20
-293.8817163856
 10
437.2209486965
 20
-298.4126380914
 10
441.0597313556
 20
-302.7796382525
 10
444.987645023
 20
-306.9715820004
 10
448.9946744021
 20
-310.9777808216
 10
453.0706024693
 20
-314.7880198099
 10
457.2050365245
 20
-318.3925837129
 10
461.387434691
 20
-321.7822817034
 10
465.6071327938
 20
-324.9484708138
 10
469.853371552
 20
-327.8830779739
 10
474.1153240117
 20
-330.5786205955
 10
478.3821231526
 20
-333.0282256511
 10
482.6428895966
 20
-335.2256471989
 10
486.8867593474
 20
-337.165282308
 10
491.1029114916
 20
-338.8421853451
 10
495.2805957896
 20
-340.2520805847
 10
499.4091600859
 20
-341.3913731109
 10
503.4780774702
 20
-342.2571579841
 10
507.4769731181
 20
-342.8472276475
 10
511.3956507451
 20
-343.1600775563
 10
515.2241186047
 20
-343.1949100134
 10
518.9526149647
 20
-342.9516362041
 10
522.5716329981
 20
-342.4308764217
  0
SPLINE
  5
12D
330
1F
100
AcDbEntity
  8
0
  6
Continuous
 62
     7
370
    25
100
AcDbSpline
210
0.0
220
0.0
230
1.0
 70
     8
 71
     3
 72
    27
 73
    23
 74
     0
 42
0.00000001
 43
0.00000001
 40
0.0
 40
0.0
 40
0.0
 40
0.0
 40
0.0500556984406058
 40
0.1001152505396701
 40
0.1501300305540401
 40
0.2001500855602449
 40
0.2509982142269179
 40
0.3018451255071679
 40
0.3532801817181295
 40
0.4047089559063169
 40
0.4552587364789941
 40
0.5058070112550758
 40
0.5554143646822071
 40
0.605026526899064
 40
0.65502909976052
 40
0.7050355689928822
 40
0.7561798210176102
 40
0.8073207727490481
 40
0.8586400076690088
 40
0.9099529732301228
 40
0.9601237086524808
 40
1.0
 40
1.0
 40
1.0
 40
1.0
 10
472.9755918063073
 20
-167.4292146227141
 30
0.0
 10
473.9327789280817
 20
-166.8057601137707
 30
0.0
 10
475.8472268629857
 20
-165.5588030977375
 30
0.0
 10
478.0102277817392
 20
-163.2169437395548
 30
0.0
 10
479.5561319436134
 20
-160.6200733300685
 30
0.0
 10
480.4327076948236
 20
-157.8232582209379
 30
0.0
 10
480.5928425481217
 20
-154.9323633785358
 30
0.0
 10
480.0413922624891
 20
-152.0447886259924
 30
0.0
 10
478.7523706166195
 20
-149.2941145843253
 30
0.0
 10
476.7881495008681
 20
-146.793394545887
 30
0.0
 10
474.19237721385
 20
-144.6592593315779
 30
0.0
 10
471.0958918593994
 20
-142.9475899077121
 30
0.0
 10
467.5648969711377
 20
-141.7086436749994
 30
0.0
 10
463.7157753841892
 20
-140.9285574242959
 30
0.0
 10
459.6186488925011
 20
-140.624281658789
 30
0.0
 10
455.3570143723971
 20
-140.7590921750439
 30
0.0
 10
451.0472013550743
 20
-141.3263093542472
 30
0.0
 10
446.8010120216644
 20
-142.2735179540069
 30
0.0
 10
442.7692979322846
 20
-143.5522383557323
 30
0.0
 10
439.1097309232374
 20
-145.086925806541
 30
0.0
 10
436.0806809639383
 20
-146.6829182894085
 30
0.0
 10
434.5596956470295
 20
-147.801109512994
 30
0.0
 10
433.8861447724698
 20
-148.2962876506118
 30
0.0
  0
SPLINE
  5
12E
330
1F
100
AcDbEntity
  8
0
  6
Continuous
 62
     7
370
    25
100
AcDbSpline
210
0.0
220
0.0
230
1.0
 70
     8
 71
     3
 72
    19
 73
    15
 74
     0
 42
0.00000001
 43
0.00000001
 40
0.0
 40
0.0
 40
0.0
 40
0.0
 40
0.055115134148338
 40
0.1452801300309212
 40
0.2333971091927076
 40
0.3215192038691244
 40
0.409303111967442
 40
0.4970963215731524
 40
0.5867007131504872
 40
0.6763048909002342
 40
0.7672216346814068
 40
0.8581269610952736
 40
0.9290646661130173
 40
1.0
 40
1.0
 40
1.0
 40
1.0
 10
432.11680654414
 20
-161.5986575430912
 30
0.0
 10
432.5217705535683
 20
-162.0052904480241
 30
0.0
 10
433.5892309681478
 20
-163.077149969304
 30
0.0
 10
435.9988345333524
 20
-164.6927221136747
 30
0.0
 10
439.1819207417273
 20
-166.3988633721836
 30
0.0
 10
442.7773016321717
 20
-167.8902751953462
 30
0.0
 10
446.6856125565805
 20
-169.1258426343202
 30
0.0
 10
450.8247002278034
 20
-170.0668946897285
 30
0.0
 10
455.0982900918776
 20
-170.6457453006542
 30
0.0
 10
459.4133770374477
 20
-170.8197808125724
 30
0.0
 10
463.6252631946395
 20
-170.5225300215241
 30
0.0
 10
467.3170248235768
 20
-169.7883019091985
 30
0.0
 10
470.4596213455432
 20
-168.7460499433014
 30
0.0
 10
472.1369443304451
 20
-167.8681548388092
 30
0.0
 10
472.9755918063073
 20
-167.4292146227141
 30
0.0
  0
LINE
  5
12F
330
1F
100
AcDbEntity
  8
0
  6
Continuous
 62
     7
370
    25
100
AcDbLine
 10
431.8345489219
 20
-166.1650260931
 30
0.0
 11
429.0056620608
 21
-167.7981077168
 31
0.0
  0
ARC
  5
130
330
1F
100
AcDbEntity
  8
0
  6
Continuous
 62
     7
370
    25
100
AcDbCircle
 10
410.6699509888
 20
-329.0696845413
 30
0.0
 40
66.92001439510406
100
AcDbArc
 50
331.1925847152
 51
357.0256455256
  0
LINE
  5
131
330
1F
100
AcDbEntity
  8
0
  6
Continuous
 62
     7
370
    25
100
AcDbLine
 10
480.145226127
 20
-359.9785160393
 30
0.0
 11
509.4844365133
 21
-343.0413504009
 31
0.0
  0
LWPOLYLINE
  5
132
330
1F
100
AcDbEntity
  8
0
  6
Continuous
 62
     7
370
    25
100
AcDbPolyline
 90
       42
 70
   128
 43
0.0
 10
354.3551241355
 20
-221.0404882676
 10
354.8229431497
 20
-225.9996912881
 10
355.4987291896
 20
-231.0450114185
 10
356.3806979854
 20
-236.1631275613
 10
357.4665208858
 20
-241.3405264169
 10
358.7533310056
 20
-246.5635381621
 10
360.2377307959
 20
-251.8183725426
 10
361.9158010139
 20
-257.0911552831
 10
363.7831110713
 20
-262.3679647195
 10
365.834730732
 20
-267.6348685562
 10
368.0652431297
 20
-272.877960651
 10
370.4687590696
 20
-278.0833977317
 10
373.0389325778
 20
-283.2374359461
 10
375.7689776565
 20
-288.32646715
 10
378.6516862009
 20
-293.3370548361
 10
381.6794470308
 20
-298.2559696109
 10
384.8442659861
 20
-303.0702241234
 10
388.1377870337
 20
-307.7671073562
 10
391.5513143303
 20
-312.3342181856
 10
395.0758351813
 20
-316.7594981244
 10
398.702043837
 20
-321.03126316
 10
402.420366063
 20
-325.1382346031
 10
406.2209844184
 20
-329.0695688671
 10
410.0938641768
 20
-332.8148860978
 10
414.0287798209
 20
-336.3642975798
 10
418.0153420408
 20
-339.7084318453
 10
422.0430251649
 20
-342.8384594171
 10
426.1011949504
 20
-345.7461161217
 10
430.179136661
 20
-348.4237249084
 10
434.2660833569
 20
-350.8642161193
 10
438.3512443225
 20
-353.0611461552
 10
442.423833557
 20
-355.0087144885
 10
446.4730982527
 20
-356.7017789782
 10
450.4883471852
 20
-358.1358694467
 10
454.4589789417
 20
-359.3071994825
 10
458.3745099114
 20
-360.2126764371
 10
462.2246019657
 20
-360.8499095907
 10
465.9990897534
 20
-361.2172164644
 10
469.6880075403
 20
-361.3136272623
 10
473.2816155216
 20
-361.1388874322
 10
476.7704255381
 20
-360.6934583375
 10
480.145226127
 20
-359.9785160393
  0
LINE
  5
133
330
1F
100
AcDbEntity
  8
0
  6
Continuous
 62
     7
370
    25
100
AcDbLine
 10
392.3090000838
 20
-199.1301820566
 30
0.0
 11
354.3551241355
 21
-221.0404882676
 31
0.0
  0
LINE
  5
134
330
1F
100
AcDbEntity
  8
0
  6
Continuous
 62
     7
370
    25
100
AcDbLine
 10
416.5056158202
 20
-160.5819846216
 30
0.0
 11
303.3685308303
 21
-225.8946335674
 31
0.0
  0
LINE
  5
135
330
1F
100
AcDbEntity
  8
0
  6
Continuous
 62
     7
370
    25
100
AcDbLine
 10
416.5056158202
 20
-166.2977703048
 30
0.0
 11
303.3685308303
 21
-231.6104192506
 31
0.0
  0
LINE
  5
136
330
1F
100
AcDbEntity
  8
0
  6
Continuous
 62
     7
370
    25
100
AcDbLine
 10
303.3685308303
 20
-225.8946335674
 30
0.0
 11
303.3685308303
 21
-231.6104192506
 31
0.0
  0
LINE
  5
137
330
1F
100
AcDbEntity
  8
0
  6
Continuous
 62
     7
370
    25
100
AcDbLine
 10
303.3685308303
 20
-231.6104192506
 30
0.0
 11
313.9751325481
 21
-237.7334800893
 31
0.0
  0
LINE
  5
138
330
1F
100
AcDbEntity
  8
0
  6
Continuous
 62
     7
370
    25
100
AcDbLine
 10
416.5056158202
 20
-157.3158213741
 30
0.0
 11
303.3685308303
 21
-222.6284703199
 31
0.0
  0
LINE
  5
139
330
1F
100
AcDbEntity
  8
0
  6
Continuous
 62
     7
370
    25
100
AcDbLine
 10
303.3685308303
 20
-222.6284703199
 30
0.0
 11
306.1974176914
 21
-224.2615519437
 31
0.0
  0
LINE
  5
13A
330
1F
100
AcDbEntity
  8
0
  6
Continuous
 62
     7
370
    25
100
AcDbLine
 10
416.5056158202
 20
-151.6000356909
 30
0.0
 11
303.3685308303
 21
-216.9126846367
 31
0.0
  0
LINE
  5
13B
330
1F
100
AcDbEntity
  8
0
  6
Continuous
 62
     7
370
    25
100
AcDbLine
 10
303.3685308303
 20
-216.9126846367
 30
0.0
 11
303.3685308303
 21
-222.6284703199
 31
0.0
  0
LINE
  5
13C
330
1F
100
AcDbEntity
  8
0
  6
Continuous
 62
     7
370
    25
100
AcDbLine
 10
354.3551241355
 20
-221.0404882676
 30
0.0
 11
349.386864096
 21
-218.1723727963
 31
0.0
  0
LINE
  5
13D
330
1F
100
AcDbEntity
  8
0
  6
Continuous
 62
     7
370
    25
100
AcDbLine
 10
480.145226127
 20
-366.9231197764
 30
0.0
 11
480.145226127
 21
-359.9785160393
 31
0.0
  0
ARC
  5
13E
330
1F
100
AcDbEntity
  8
0
  6
Continuous
 62
     7
370
    25
100
AcDbCircle
 10
500.767492094
 20
-108.2945289119
 30
0.0
 40
3.482122162550838
100
AcDbArc
 50
114.009198236
 51
174.6706608064
  0
LWPOLYLINE
  5
13F
330
1F
100
AcDbEntity
  8
0
  6
Continuous
 62
     7
370
    25
100
AcDbPolyline
 90
       13
 70
   128
 43
0.0
 10
511.3004222129
 20
-107.9711078329
 10
511.2908289562
 20
-107.7596175018
 10
511.0619029969
 20
-106.9252164521
 10
510.5374678822
 20
-106.1365258746
 10
509.7404439431
 20
-105.4280153319
 10
508.7056649502
 20
-104.8306501346
 10
507.478355711
 20
-104.3705380083
 10
506.1121555286
 20
-104.0677880608
 10
504.6667739066
 20
-103.9356319175
 10
503.2053809576
 20
-103.9798454361
 10
501.7918465661
 20
-104.1984962737
 10
500.4879489678
 20
-104.5820283393
 10
499.3506747446
 20
-105.1136794415
  0
LWPOLYLINE
  5
140
330
1F
100
AcDbEntity
  8
0
  6
Continuous
 62
     7
370
    25
100
AcDbPolyline
 90
       26
 70
   128
 43
0.0
 10
432.5290839224
 20
-80.4103009555
 10
434.7828043647
 20
-79.2293115132
 10
437.2234474895
 20
-78.1794043267
 10
439.8282256697
 20
-77.2703820963
 10
442.5728187931
 20
-76.5107321179
 10
445.4316013334
 20
-75.9075470385
 10
448.3778816081
 20
-75.4664586347
 10
451.3841509922
 20
-75.1915852301
 10
454.4223407584
 20
-75.0854932436
 10
457.4640841475
 20
-75.1491732275
 10
460.480981221
 20
-75.382030619
 10
463.4448640237
 20
-75.7818912913
 10
466.3280595806
 20
-76.3450218531
 10
469.1036482716
 20
-77.066164506
 10
471.7457151729
 20
-77.9385861354
 10
474.2295920176
 20
-78.9541411756
 10
476.532087517
 20
-80.1033476628
 10
478.6317038909
 20
-81.3754757657
 10
480.508837587
 20
-82.758647967
 10
482.1459623137
 20
-84.2399499604
 10
483.5277926786
 20
-85.8055512284
 10
484.6414269037
 20
-87.4408341738
 10
485.4764672865
 20
-89.1305306003
 10
486.0251172799
 20
-90.8588642676
 10
486.2822542866
 20
-92.6096981899
 10
486.3029475298
 20
-93.2687287167
  0
LWPOLYLINE
  5
141
330
1F
100
AcDbEntity
  8
0
  6
Continuous
 62
     7
370
    25
100
AcDbPolyline
 90
       10
 70
   128
 43
0.0
 10
423.3029475298
 20
-93.2687287167
 10
423.3052470029
 20
-93.0490091044
 10
423.4890236263
 20
-91.2950994854
 10
423.9651699202
 20
-89.5596171108
 10
424.7292402348
 20
-87.8587657118
 10
425.7741006515
 20
-86.2084256798
 10
427.0899955901
 20
-84.624005795
 10
428.6646388942
 20
-83.1202993589
 10
430.4833285433
 20
-81.7113460733
 10
432.5290839224
 20
-80.4103009555
  0
ENDSEC
  0
SECTION
  2
OBJECTS
  0
DICTIONARY
  5
C
330
0
100
AcDbDictionary
281
     1
  3
ACAD_GROUP
350
D
  3
ACAD_LAYOUT
350
1A
  3
ACAD_MLINESTYLE
350
17
  3
ACAD_PLOTSETTINGS
350
19
  3
ACAD_PLOTSTYLENAME
350
E
  3
ACAD_SCALELIST
350
47
  3
DWGPROPS
350
142
  0
DICTIONARY
  5
D
102
{ACAD_REACTORS
330
C
102
}
330
C
100
AcDbDictionary
281
     1
  0
DICTIONARY
  5
1A
102
{ACAD_REACTORS
330
C
102
}
330
C
100
AcDbDictionary
281
     1
  3
Layout1
350
1E
  3
Layout2
350
26
  3
Model
350
22
  0
DICTIONARY
  5
17
102
{ACAD_REACTORS
330
C
102
}
330
C
100
AcDbDictionary
281
     1
  3
Standard
350
18
  0
DICTIONARY
  5
19
102
{ACAD_REACTORS
330
C
102
}
330
C
100
AcDbDictionary
281
     1
  0
ACDBDICTIONARYWDFLT
  5
E
102
{ACAD_REACTORS
330
C
102
}
330
C
100
AcDbDictionary
281
     1
  3
Normal
350
F
100
AcDbDictionaryWithDefault
340
F
  0
DICTIONARY
  5
47
102
{ACAD_REACTORS
330
C
102
}
330
C
100
AcDbDictionary
281
     1
  3
A0
350
48
  3
A1
350
49
  3
A2
350
4A
  3
A3
350
4B
  3
A4
350
4C
  3
A5
350
4D
  3
A6
350
4E
  3
A7
350
4F
  3
A8
350
50
  3
A9
350
51
  3
B0
350
52
  3
B1
350
53
  3
B2
350
54
  3
B3
350
55
  3
B4
350
56
  3
B5
350
57
  3
B6
350
58
  3
B7
350
59
  3
B8
350
5A
  3
B9
350
5B
  3
C0
350
5C
  3
C1
350
5D
  3
C2
350
5E
  3
C3
350
5F
  3
C4
350
60
  3
C5
350
61
  3
C6
350
62
  3
C7
350
63
  3
C8
350
64
  3
C9
350
65
  3
D0
350
66
  3
D1
350
67
  3
D2
350
68
  0
XRECORD
  5
142
102
{ACAD_REACTORS
330
C
102
}
330
C
100
AcDbXrecord
280
     1
  1
DWGPROPS COOKIE
  2

  3

  4

  6

  7

  8
b.kav
  9

300
=
301
=
302
=
303
=
304
=
305
=
306
=
307
=
308
=
309
=
 40
0.0
 41
2459741.489580555
 42
2459741.489580741
  1

 90
        0
  0
LAYOUT
  5
1E
102
{ACAD_REACTORS
330
1A
102
}
330
1A
100
AcDbPlotSettings
  1

  2
none_device
  4

  6

 40
0.0
 41
0.0
 42
0.0
 43
0.0
 44
0.0
 45
0.0
 46
0.0
 47
0.0
 48
0.0
 49
0.0
140
0.0
141
0.0
142
1.0
143
1.0
 70
   688
 72
     1
 73
     0
 74
     5
  7

 75
    16
147
1.0
148
0.0
149
0.0
100
AcDbLayout
  1
Layout1
 70
     1
 71
     1
 10
0.0
 20
0.0
 11
420.0
 21
297.0
 12
0.0
 22
0.0
 32
0.0
 14
1.0000000000E+20
 24
1.0000000000E+20
 34
1.0000000000E+20
 15
-1.0000000000E+20
 25
-1.0000000000E+20
 35
-1.0000000000E+20
146
0.0
 13
0.0
 23
0.0
 33
0.0
 16
1.0
 26
0.0
 36
0.0
 17
0.0
 27
1.0
 37
0.0
 76
     0
330
1B
  0
LAYOUT
  5
26
102
{ACAD_REACTORS
330
1A
102
}
330
1A
100
AcDbPlotSettings
  1

  2
none_device
  4

  6

 40
0.0
 41
0.0
 42
0.0
 43
0.0
 44
0.0
 45
0.0
 46
0.0
 47
0.0
 48
0.0
 49
0.0
140
0.0
141
0.0
142
1.0
143
1.0
 70
   688
 72
     1
 73
     0
 74
     5
  7

 75
    16
147
1.0
148
0.0
149
0.0
100
AcDbLayout
  1
Layout2
 70
     1
 71
     2
 10
0.0
 20
0.0
 11
0.0
 21
0.0
 12
0.0
 22
0.0
 32
0.0
 14
0.0
 24
0.0
 34
0.0
 15
0.0
 25
0.0
 35
0.0
146
0.0
 13
0.0
 23
0.0
 33
0.0
 16
1.0
 26
0.0
 36
0.0
 17
0.0
 27
1.0
 37
0.0
 76
     0
330
23
  0
LAYOUT
  5
22
102
{ACAD_REACTORS
330
1A
102
}
330
1A
100
AcDbPlotSettings
  1

  2
none_device
  4
Letter_(8.50_x_11.00_Inches)
  6

 40
6.35
 41
6.35
 42
6.35000508
 43
6.35000508
 44
215.9
 45
279.4
 46
0.0
 47
0.0
 48
0.0
 49
0.0
140
0.0
141
0.0
142
1.0
143
1.0
 70
  1712
 72
     1
 73
     0
 74
     0
  7

 75
     0
147
1.0
148
0.0
149
0.0
100
AcDbLayout
  1
Model
 70
     1
 71
     0
 10
0.0
 20
0.0
 11
279.4
 21
215.9
 12
0.0
 22
0.0
 32
0.0
 14
0.0
 24
0.0
 34
0.0
 15
279.4
 25
215.9
 35
0.0
146
0.0
 13
0.0
 23
0.0
 33
0.0
 16
1.0
 26
0.0
 36
0.0
 17
0.0
 27
1.0
 37
0.0
 76
     0
330
1F
331
29
  0
MLINESTYLE
  5
18
102
{ACAD_REACTORS
330
17
102
}
330
17
100
AcDbMlineStyle
  2
Standard
 70
     0
  3

 62
   256
 51
90.0
 52
90.0
 71
     2
 49
0.5
 62
   256
  6
BYLAYER
 49
-0.5
 62
   256
  6
BYLAYER
  0
ACDBPLACEHOLDER
  5
F
102
{ACAD_REACTORS
330
E
102
}
330
E
  0
SCALE
  5
48
102
{ACAD_REACTORS
330
47
102
}
330
47
100
AcDbScale
 70
     0
300
1:1
140
1.0
141
1.0
290
     1
  0
SCALE
  5
49
102
{ACAD_REACTORS
330
47
102
}
330
47
100
AcDbScale
 70
     0
300
1:2
140
1.0
141
2.0
290
     0
  0
SCALE
  5
4A
102
{ACAD_REACTORS
330
47
102
}
330
47
100
AcDbScale
 70
     0
300
1:4
140
1.0
141
4.0
290
     0
  0
SCALE
  5
4B
102
{ACAD_REACTORS
330
47
102
}
330
47
100
AcDbScale
 70
     0
300
1:5
140
1.0
141
5.0
290
     0
  0
SCALE
  5
4C
102
{ACAD_REACTORS
330
47
102
}
330
47
100
AcDbScale
 70
     0
300
1:8
140
1.0
141
8.0
290
     0
  0
SCALE
  5
4D
102
{ACAD_REACTORS
330
47
102
}
330
47
100
AcDbScale
 70
     0
300
1:10
140
1.0
141
10.0
290
     0
  0
SCALE
  5
4E
102
{ACAD_REACTORS
330
47
102
}
330
47
100
AcDbScale
 70
     0
300
1:16
140
1.0
141
16.0
290
     0
  0
SCALE
  5
4F
102
{ACAD_REACTORS
330
47
102
}
330
47
100
AcDbScale
 70
     0
300
1:20
140
1.0
141
20.0
290
     0
  0
SCALE
  5
50
102
{ACAD_REACTORS
330
47
102
}
330
47
100
AcDbScale
 70
     0
300
1:30
140
1.0
141
30.0
290
     0
  0
SCALE
  5
51
102
{ACAD_REACTORS
330
47
102
}
330
47
100
AcDbScale
 70
     0
300
1:40
140
1.0
141
40.0
290
     0
  0
SCALE
  5
52
102
{ACAD_REACTORS
330
47
102
}
330
47
100
AcDbScale
 70
     0
300
1:50
140
1.0
141
50.0
290
     0
  0
SCALE
  5
53
102
{ACAD_REACTORS
330
47
102
}
330
47
100
AcDbScale
 70
     0
300
1:100
140
1.0
141
100.0
290
     0
  0
SCALE
  5
54
102
{ACAD_REACTORS
330
47
102
}
330
47
100
AcDbScale
 70
     0
300
2:1
140
2.0
141
1.0
290
     0
  0
SCALE
  5
55
102
{ACAD_REACTORS
330
47
102
}
330
47
100
AcDbScale
 70
     0
300
4:1
140
4.0
141
1.0
290
     0
  0
SCALE
  5
56
102
{ACAD_REACTORS
330
47
102
}
330
47
100
AcDbScale
 70
     0
300
8:1
140
8.0
141
1.0
290
     0
  0
SCALE
  5
57
102
{ACAD_REACTORS
330
47
102
}
330
47
100
AcDbScale
 70
     0
300
10:1
140
10.0
141
1.0
290
     0
  0
SCALE
  5
58
102
{ACAD_REACTORS
330
47
102
}
330
47
100
AcDbScale
 70
     0
300
100:1
140
100.0
141
1.0
290
     0
  0
SCALE
  5
59
102
{ACAD_REACTORS
330
47
102
}
330
47
100
AcDbScale
 70
     0
300
1/128" = 1'-0"
140
0.0078125
141
12.0
290
     0
  0
SCALE
  5
5A
102
{ACAD_REACTORS
330
47
102
}
330
47
100
AcDbScale
 70
     0
300
1/64" = 1'-0"
140
0.015625
141
12.0
290
     0
  0
SCALE
  5
5B
102
{ACAD_REACTORS
330
47
102
}
330
47
100
AcDbScale
 70
     0
300
1/32" = 1'-0"
140
0.03125
141
12.0
290
     0
  0
SCALE
  5
5C
102
{ACAD_REACTORS
330
47
102
}
330
47
100
AcDbScale
 70
     0
300
1/16" = 1'-0"
140
0.0625
141
12.0
290
     0
  0
SCALE
  5
5D
102
{ACAD_REACTORS
330
47
102
}
330
47
100
AcDbScale
 70
     0
300
3/32" = 1'-0"
140
0.09375
141
12.0
290
     0
  0
SCALE
  5
5E
102
{ACAD_REACTORS
330
47
102
}
330
47
100
AcDbScale
 70
     0
300
1/8" = 1'-0"
140
0.125
141
12.0
290
     0
  0
SCALE
  5
5F
102
{ACAD_REACTORS
330
47
102
}
330
47
100
AcDbScale
 70
     0
300
3/16" = 1'-0"
140
0.1875
141
12.0
290
     0
  0
SCALE
  5
60
102
{ACAD_REACTORS
330
47
102
}
330
47
100
AcDbScale
 70
     0
300
1/4" = 1'-0"
140
0.25
141
12.0
290
     0
  0
SCALE
  5
61
102
{ACAD_REACTORS
330
47
102
}
330
47
100
AcDbScale
 70
     0
300
3/8" = 1'-0"
140
0.375
141
12.0
290
     0
  0
SCALE
  5
62
102
{ACAD_REACTORS
330
47
102
}
330
47
100
AcDbScale
 70
     0
300
1/2" = 1'-0"
140
0.5
141
12.0
290
     0
  0
SCALE
  5
63
102
{ACAD_REACTORS
330
47
102
}
330
47
100
AcDbScale
 70
     0
300
3/4" = 1'-0"
140
0.75
141
12.0
290
     0
  0
SCALE
  5
64
102
{ACAD_REACTORS
330
47
102
}
330
47
100
AcDbScale
 70
     0
300
1" = 1'-0"
140
1.0
141
12.0
290
     0
  0
SCALE
  5
65
102
{ACAD_REACTORS
330
47
102
}
330
47
100
AcDbScale
 70
     0
300
1-1/2" = 1'-0"
140
1.5
141
12.0
290
     0
  0
SCALE
  5
66
102
{ACAD_REACTORS
330
47
102
}
330
47
100
AcDbScale
 70
     0
300
3" = 1'-0"
140
3.0
141
12.0
290
     0
  0
SCALE
  5
67
102
{ACAD_REACTORS
330
47
102
}
330
47
100
AcDbScale
 70
     0
300
6" = 1'-0"
140
6.0
141
12.0
290
     0
  0
SCALE
  5
68
102
{ACAD_REACTORS
330
47
102
}
330
47
100
AcDbScale
 70
     0
300
1'-0" = 1'-0"
140
12.0
141
12.0
290
     0
  0
ENDSEC
  0
EOF
